Oops, an error
Loading. Please wait.

Nevadas Grace bass

version 1
version 1

Whole song

Interactive

by Atreyu
840 views 1 this week
1 commentread comment
1 2 3 4 5
2 more votes to show rating
add to favorites
×
Save as Personal and add changes to this tab that will be seen only by you. Learn more ›
×
You can save this tab as Personal to edit and correct it or add notes. All changes will be seen only by you. Learn more »
launch autoscroll
font size
0
reset
guitar tuner
edit
Autoscroll
slow
fast
+/-
esc
set tempo
stop
Artist:	Atreyu
Title:	Nevada's Grace

Song: Nevada's Grace
Artist: Atreyu
Album: The Curse

Tabbed by: Ben pinkispunk_ben@hotmail.com

This is an amazing song, Atreyu are my favourite band, please rate it

Tuning C G C F

Intro & Chorus (0:02)
F|------------------------|
C|------------------------| x4
G|------------------------|
C|555555999999000000777777|


Post-Chorus (Just In Intro) (0:32)
F|------|
C|------|
G|------| 
C|9-7-3~|


Pre-Verse (0:34)
F|-----------------------|
C|-----------------------| x4
G|-----------------------|
C|0000-0000--------------|


Verse (0:50)
F|--------------------|
C|--------------------| x4
G|55555555553333333333|
C|--------------------|


Chorus (1:04)
F|------------------------|
C|------------------------| x4
G|------------------------|
C|555555999999000000777777|


Pre-Verse (1:34)
F|------------------------|
C|------------------------| 
G|-----5p3h5p3h5p3h5------| Very 
C|------------------------|


Verse (1:42)
F|--------------------|
C|--------------------| x4
G|55555555553333333333|
C|--------------------|


Interlude (1:49)
F|-----------|
C|---7~---10~| x2
G|--7----7---|
C|-7----7----|


(2:04)
F|---------------------------10/1210|
C|---7~-7-5-3~---10~-10/1210--------|
G|--7-----------7--------------------|
C|-7-----------7---------------------|


(2:12)
F|------------------------10/1210----|
C|---7~-7-5-3~---10~---------------10|
G|--7-----------7---------------------|
C|-7-----------7----------------------|


(2:19)
F|------------------------10/1210---|
C|---7~-7-5-3~---10~--------------10|
G|--7-----------7--------------------|
C|-7-----------7---------------------|


(2:26)
F|-----------------------|
C|---7~-7-5-3~---10~--10|
G|--7-----------7--------|
C|-7-----------7---------|


Verse 2 (2:34)
F|---------------------------|
C|---------------------------| x2
G|0--0-0-5--5-5-3--3-3-3--3-3|
C|---------------------------|


(2:49)
F|-------------------------| 
C|-------------------------| x4
G|0000005555553333333333333|
C|-------------------------|


Pre-Outro (3:19)
F|--|
C|--|
G|0~|
C|--|


Outro (3:20)
F|-------------------|
C|-------------------| x2
G|-5-9-5-3~--9-7-5-0~|
C|-------------------|


            
            
Suggest correction
Creating personal tab
Creating personal tab
You can edit any tab online and save it as your Personal.

You can edit, replace or remove any tab part or add personal notes – all changes will be seen only by you.

Personal tabs can be accessed anytime from any device, even offline.
Learn more »
Give kudos to tab author, rate the tab!
1 2 3 4 5
comments
print report bad tab
1 comment total.
0 reply
AtreyuHxCKid666 31 Jan 26, 2007 04:56 AM

love the song bro, thanks for tabbing it!! its almost perfect!!

guest
Wanna post a correction for this tab? Suggest correction