Oops, an error
Loading. Please wait.

Right Side Of The Bed Tab

version 4
version 4
by Atreyu
14,466 views 6 this week
1 commentread comment
1 2 3 4 5
x 9
add to favorites
launch autoscroll
font size
0
reset
how to read this tab
guitar tuner
×
Best way to learn
"Right Side Of The Bed"
Autoscroll
slow
fast
+/-
esc
set tempo
stop
Author
Difficulty
intermediate
Song- Right Side of the Bed
Artist- Atreyu
Album- The Curse

Tabbed by- Andrew Jordan. Leave your comments and rate honestly...

Dan Jacobs- guitar 1...                  Tuning- CGCFAD
Travis Miguel- guitar 2...               Tuning- CGCFAD

Key:
b- bend
h- hammer on
p- pull off
t- tap
*- pinch harmonic
r- release bend
.- PM (palm mute)
X- Mute string
Intro
D---------------------------------------------------------|
A---------------------------------------------------------|
F----------7--5-----------------------7--5------10-10-----|
C----------7--5---8-8-10-10-----------7--5------10-10-8-8-|
G----------5--5-5-8-8-10-10-----------5--5-5-----8--8-8-8-|
C--00-0-0---------8-8-10-10---00-0-0------------------8-8-|
PM .. . .       .             .. . .       .

D------------------------------|-----------------------------------|
A------------------------------|-----------------------------------|
F----------7--5----------------|-----------------------------------|
C----------7--5------8-8-10-10-|-7---------------------------------|
G----------5--5-5----8-8-10-10-|-7----------8-7-------8-7---10-8---|
C--00-0-0------------8-8-10-10-|-7---7-10-7-----10-8*-----8------10|
PM .. . .       .                                  ^
                                                   |
                                             See bottom for help

Rhythm during harmonic riff
D-----------------------------|------------------------------------|
A-----------------------------|------------------------------------|
F-----------------------------|------------------------------------|
C-----------------------------|------------------------------------|
G-----------------------------|-7-----------------8--------------0-|
C-----------------------------|-7-----------------8--------------0-|


D-------------------|
A-------------------|
F--12-10-9-10p9-----|  <- This part comes in the second part of the
C---------------10--|     intro right after Alex screams “come on!”
G-------------------|
C-------------------|


Verse
D-------------------------------|
A-------------------------------|
F--------------------3-3--------|
C--0-0--0--0-0-------3-3--3-3---| x2
G--0-0--0--0-0-------1-1--3-3---|
C--0-0--0--0-0--0-0-------3-3---|
PM              . .

Verse pt. 2
D------------------------------------------------|
A------------------------------------------------|
F------------------------------------------------|
C--0---------0----3p2---0----------5-5-3-2-0-----|
G--0--3-3h5--0--3----3--0--3-3h5p3---------0-----|
C--0---------0----------0------------------0-----|


Chorus
D----------------------------------------------------------------|
A----------------------------------------------------------------|
F-14-14-14-14-15-14-14-14-14-15-17-17-15-14-15-14-14-12-10-12-14-|
C-X--X--X--X--X--X--X--X--X--X--X--X--X--X--X--X--X--X---X-X--X--|
G-12-12-12-12-13-12-12-12-12-13-15-15-13-12-13-12-12-10--8-10-12-|
C----------------------------------------------------------------|

D---------------------------------------------------------------|
A---------------------------------------------------------------|
F-10-10-10-10-10-10-10--10-10-10-10-12-10-9-7-5-5-5-5-5-5-5-5---|
C-X--X--X--X--X--X--X---X--X--X--X--X--X--X-X-X-X-X-X-X-X-X-X---|
G-8--8--8--8--8--8--8---8--8--8--8--10-8--7-5-3-3-3-3-3-3-3-3---|
C---------------------------------------------------------------|

D---------------------------------------------------------------|
A---------------------------------------------------------------|
F-14-14-14-14-15-14-14-14-14-15-17-17-17-17-19-17-15-14-12-14---|
C--X--X--X--X--X--X--X--X--X--X--X--X--X--X--X--X--X--X--X--X---|
G-12-12-12-12-13-12-12-12-12-13-15-15-15-15-17-15-13-12-10-12---|
C---------------------------------------------------------------|

D---------------------------------------------------------------|
A---------------------------------------------------------------|
F-10-10-10-10-10-10-10-10-10-10-10-12-10-9-7-5-5-5-5-5-5-5-5----|
C-X--X--X--X--X--X--X--X--X--X--X--X--X--X-X-X-X-X-X-X-X-X-X----|
G-8--8--8--8--8--8--8--8--8--8--8--10-8--7-5-3-3-3-3-3-3-3-3--0-|
C-------------------------------------------------------------0-|

Rhythm in chorus
D---------------|------------------------------------|
A---------------|------------------------------------|
F--------3--5---|------------------------------------|
C--0--3--3--5---|-7----------------------------------|
G--0--3--1--3---|-7----------8-7-------8-7---10-8----|
C--0--3---------|-7---7-10-7-----10-8*-----8------10-|


Interlude (slightly muted, not really though)
D------------------------------------------------------------------|
A------------------------------------------------------------------|
F--8-8-8-8-8-8-8-8-8-8-8-8-8-8-8-8-10-7-7-7-7-7-7-7-7-7-7-7-7-7-7-7|
C------------------------------------------------------------------|
G------------------------------------------------------------------|
C------------------------------------------------------------------|

D------------------------------------------------------------------|
A------------------------------------------------------------------|
F--8-8-8-8-8-8-8-8-7-7-7-7-7-7-7-7-5-5-5-5-5-5-5-5-5-5-5-5-5-5-5-5-|
C------------------------------------------------------------------|
G------------------------------------------------------------------|
C------------------------------------------------------------------|

D----------------------------------|-------------------|
A----------------------------------|-------------------|
F--8-8-8-8-8-8-8-8-8-8-8-8-8-8-8-8-|--12-12-13br12-----|<- let ring
C----------------------------------|-------------------|
G----------------------------------|-------------------|
C----------------------------------|-------------------|

Rhythm in Interlude (it’s kind of hard to hear but, yeah. This is it)
D-----------|  |----------------|  |-----------|  |-----------|
A-----------|  |----------------|  |-----------|  |-----------|
F-----------|X2|----------------|X2|-----------|X4|-----------|X2
C----------8|  |--------------10|  |----------6|  |----------8|
G----------8|  |--------------10|  |----------6|  |----------8|
C--8-8-8-8-8|  |--10-10-10-10-10|  |--6-6-6-6-6|  |--8-8-8-8-8|
PM . . . .        .  .  .  .          . . . .        . . . .
D------------------------------------|
A------------------------------------|
F------------------------------------|
C------------------------------------|
G--10-10-10-10-10-10-10-10-10-10-10--|
C--10-10-10-10-10-10-10-10-10-10-10--|
PM .  .  .  .  .  .  .  .  .  .  .

Before solo
D------------------------------------------------------|-----|
A------------------------------------------------------|-----|
F---7-7-7--5--3-------------------5--3-3-3-3--5-5-5-5--|-2-3-|
C---7-7-7--5--3--3-3-3--2--0-0-0--5--3-3-3-3--5-5-5-5--|-2-3-|
G---5-5-5--3--1--3-3-3--2--0-0-0--3--1-1-1-1--3-3-3-3--|-0-1-|
C----------------3-3-3--2--0-0-0-----------------------|-----|
PM               . . .     . . .
Solo
D--------------------------------------------------------------|
A---10--------13p10----11p10----13p10----11p10-----11p10-------|
F---12b14~----------10-------10-------10-------10--------12p10-|
C--------------------------------------------------------------|
G--------------------------------------------------------------|
C--------------------------------------------------------------|

D-----------------------------------------------------------------|
A--13p10----11p10----13p10----11p10-----10h11p10------------------|
F--------10-------10-------10-------10-----------12p10------------|
C-----------------------------------------------------------------|
G-----------------------------------------------------------------|
C-----------------------------------------------------------------|

D--------------------------------------------------------------|
A--13p10----11p10----13p10----11p10----11p10-------------------|
F--------10-------10-------10-------10-----------12p10---------|
C--------------------------------------------------------------|
G--------------------------------------------------------------|
C--------------------------------------------------------------|

D--------13-------------------|
A--13b15----13b15r13-11-13b15-|
F-----------------------------|
C-----------------------------|
G-----------------------------|
C-----------------------------|

D--13p12p10---------------------------------------------------|
A------------13p11p10-----------------------------------------|
F----------------------12b14r12-10-12p10----10---------12-14*-|
C----------------------------------------12----12-12----------|
G-------------------------------------------------------------|
C-------------------------------------------------------------|

D-------------------------------------------------------|
A-------------------------------------------------------|
F--12b-t17-p12-t15-p12-t17-p12-t19-p12-t17-p12-t15-p12r-|
C-------------------------------------------------------|
G-------------------------------------------------------|
C-------------------------------------------------------|

D--------------------------------------------------------|
A--------------------------------------------------------|
F--14h17t21-14h17t21-14h17t21-14h17t21-14h17t22-14h17t22-|
C--------------------------------------------------------|
G--------------------------------------------------------|
C--------------------------------------------------------|

D---------------------------------------------------|
A---------------------------------------------------|
F--14h17t22-14h17t22--15p14-------------------------|
C---------------------------15-17--19-19--17p15h17--|
G---------------------------------------------------|
C---------------------------------------------------|

Rhythm in solo
D----------------------------------------------|
A----------------------------------------------|
F----------------------------------------------|
C--10----------------------6-------------------|
G--10----------------------6-------------------|
C--10----------------------6-------------------|

That’s it. I'm pretty sure its all correct. once again leave your comments and rate this 
honestly!!

------------------------------------------------------------------------

An easier version of the harmonic riff is right here, it doesn’t sound as good though 
I play it though… so here you go.

D---------------------------------------|
A---------------------------------------|
F---2-----------------------------------|
C---2----2----3p2---3*----2---5p3-2--0--|
G---0--0---0------3-----0---0--------0--|
C------------------------------------0--|
Suggest correction
comments
print report bad tab
1 comment total.
+3 reply
x36CFx 72 Sep 06, 2009 01:27 AM

Perfect, thanks for tabbing!

guest
You may want to rate the tab now too:
select rating
Wanna post a correction for this tab? Suggest correction