Oops, an error
Loading. Please wait.

Shameful bass

version 2
version 2

Whole song

Interactive

by Atreyu
681 views 1 this week
3 commentsread comments
1 2 3 4 5
x 3
add to favorites
×
Save as Personal and add changes to this tab that will be seen only by you. Learn more ›
×
You can save this tab as Personal to edit and correct it or add notes. All changes will be seen only by you. Learn more »
launch autoscroll
font size
0
reset
guitar tuner
edit
Autoscroll
slow
fast
+/-
esc
set tempo
stop
----------------------------------------------------------------------------
			     Shameful - Atreyu
----------------------------------------------------------------------------

Tabbed By : Up_in_flames with input from ben_trivium
e-mail: sk8in_maniac@hotmail.com


Tuning: CGCF


Intro     0:06

F|-----------------------------------|
C|-----------------------------------|
G|-----------------------------------|
C|---0~~~-------888888 555555-55-----|

Verse pt. 1   0:12
                                                   x 2
F|------------------------------------------------------|
C|------------------------------------------------------|
G|-----555---555-5--555---555----5----------------------|
C|--000---000---0-00----000---000--888888888-55555555---|
                   .

Verse pt. 2   0:36
                                           x 2
F|---------------------------------------------|
C|------------------------------------(0)------|
G|-------------------------(50)------(0)-------|
C|-00000000-00000000-333333---5-555555---------|
(notes in brackets arent very noticeable so you could just not play them but they are there)

Chorus      0:59

F|----------------------------------------------------------|
C|----------------------------------------------------------|
G|----------------------------------------------------------|
C|--00000000-88888888-1010101010101010-55555555-------------|

F|----------------------------------------------------------|
C|----------------------------------------------------------|
G|----------------------------------------------------------|
C|--00000000-88888888-1010101010101010-8888-5555------------|

Verse 2
                                           x 2
F|---------------------------------------------|
C|---------------------------------------------|
G|---------------------------------------------|
C|--000-000-00-0-00-000-0-88888888-55555555----|


Chorus      1:50

F|----------------------------------------------------------|
C|----------------------------------------------------------|
G|----------------------------------------------------------|
C|--00000000-88888888-1010101010101010-55555555-------------|

F|----------------------------------------------------------|
C|----------------------------------------------------------|
G|----------------------------------------------------------|
C|--00000000-88888888-1010101010101010-55555555-------------|


bridge        2:14

F|--------------------------------------------------------------------------|
C|--------------------------------------------------------------------------|
G|--88888888-1010101010101010-55555555-44444444-----------------------------|
C|----------------------------------------------88888888-1010101010101010---|

F|--------------------------------------------------------------------------|
C|--------------------------------------------------------------------------|
G|--55555555----------------------------88888888-44444444-------------------|
C|------------88888888-1010101010101010-------------------88888888-55555555-|

F|--------------------------------------------------------|
C|--------------------------------------------------------|
G|--------------------------------------------------------|
C|-0~~~~~------------------0~~---8~~---10~~--8888-5555----|

Chorus       3:02

F|----------------------------------------------------------|
C|----------------------------------------------------------|
G|----------------------------------------------------------|
C|--00000000-88888888-1010101010101010-55555555-------------|

F|----------------------------------------------------------|
C|----------------------------------------------------------|
G|----------------------------------------------------------|
C|--00000000-88888888-1010101010101010-8888-5555~/0---------|

| .  palm mute
| /  slide up
| \  slide down
| h  hammer-on
| p  pull-off
| ~  let ring
| +  harmonic
| x  Mute note
============================================================================

            
            
Suggest correction
Creating personal tab
Creating personal tab
You can edit any tab online and save it as your Personal.

You can edit, replace or remove any tab part or add personal notes – all changes will be seen only by you.

Personal tabs can be accessed anytime from any device, even offline.
Learn more »
Give kudos to tab author, rate the tab!
1 2 3 4 5
comments
print report bad tab
3 comments total.
0 reply
Satan Man 1,286 Feb 21, 2007 10:16 AM

u cud make it easier by playing

F|----------------------------------------------------------------------------|
C|----------------------------------------------------------------------------|
G|----------------------------------------------------------------------------|
C|--000-121212-000-121212-0-12-00-121212-000-121212-000-12-888888888-55555555-|

instead of F|------------------------------------------------------|
C|------------------------------------------------------|
G|-----555---555-5--555---555----5----------------------|
C|--000---000---0-00----000---000--888888888-55555555---|

0 reply
ismellfunny13 362 Apr 13, 2007 06:57 PM

Could someone make a shamful tab for guitar pro

0 reply
frankibo 1,416 Oct 14, 2007 02:27 AM

yeah id also like one for guitar pro :)

guest
You may want to rate the tab now too:
select rating
Wanna post a correction for this tab? Suggest correction