Oops, an error
Loading. Please wait.

Slow Burn tab

version 2
version 2

Whole song

Interactive

by Atreyu
7,344 views 3 this week
5 commentsread comments
1 2 3 4 5
x 6
add to favorites
×
Save as Personal and add changes to this tab that will be seen only by you. Learn more ›
×
You can save this tab as Personal to edit and correct it or add notes. All changes will be seen only by you. Learn more »
launch autoscroll
font size
0
reset
how to read this tab
guitar tuner
edit
Autoscroll
slow
fast
+/-
esc
set tempo
stop
Tabbed by: Joshua Garcia (joshuag523@aol.com)

Tabs For the song: Slow Burn by Atreyu
Please rate and let me know if you have any corrections. Thank you.

Tuning: Drop C (C G C F A D)


Intro
Guitar 1/2
D||----------------------------------|
A||----------------------------------|
F||----------------------------------| x2
C||----------------------------------|
G||-------------------------2-3-2----|
C||-0-2-5-0-2-5-0-2-5-0-2-5-------5--|


D||--------------------------------------------------------------------|
A||--------------------------------------------------------------------|
F||-----------------------------------------------------------4-4-4-4--|
C||---2-5---2-5---2-5---2-5---2-5-2----2-5---2-5---1-4---1-4--4-4-4-4--|
G||-3-----3-----3-----3-----3--------2-----2-----2-----2------2-2-2-2--|
C||--------------------------------------------------------------------|
                                                              . . . .


Pre-Chorus
Guitar 1/2:
D||----------------------------------------------------------------|
A||----------------------------------------------------------------|
F||-5-5-5-5---7-7--------------------------------------------------|
C||-5-5-5-5---7-7-5-7-7-7-7---9-9-0-2-2-2-2--5-5--1-1-1-1--5-5--0--|
G||-3-3-3-3---5-5-5-7-7-7-7---9-9-0-2-2-2-2--5-5--1-1-1-1--5-5--0--|
C||---------------5-7-7-7-7---9-9-0-2-2-2-2--5-5--1-1-1-1--5-5--0--|
    . . . .   . . . . . . .   . . . . . . .  . .  . . . .  . .  .

D||-----------------------------|
A||-----------------------------|
F||-5-5-5-5-5-5-5-5-4-4-4-4-4---|
C||-5-5-5-5-5-5-5-5-4-4-4-4-4---|
G||-3-3-3-3-3-3-3-3-2-2-2-2-2---|
C||-----------------------------|
    . . . . . . . . . . .


Chorus
Guitar 1:
D||------------------------------------------------------------------|
A||------------------------------------------------------------------|
F||-999999999999999977777777777777775555555555555555557777777778888--|
C||-999999999999999977777777777777775555555555555555557777777778888--|
G||-777777777777777755555555555555553333333333333333335555555556666--|
C||------------------------------------------------------------------|


D||--------------------------------------------------------|
A||--------------------------------------------------------|
F||-99999999999999997777777777777777555555555555555555-4---|
C||-99999999999999997777777777777777555555555555555555-4---|
G||-77777777777777775555555555555555333333333333333333-2---|
C||--------------------------------------------------------|


Guitar 2:
D||----------------------------------------------|----------------------------------------------|
A||----------------------------------------------|----------------------------------------------|
F||-12-12-12--14-14-14--16-16-16-16-16-16-16-16--|-10-10-10--14-14-14--16-16-16-16-16-16-16-16--|
C||-x--x--x---x--x--x---x--x--x--x--x--x--x--x---|-x--x--x---x--x--x---x--x--x--x--x--x--x--x---|
G||-10-10-10--12-12-12--14-14-14-14-14-14-14-14--|-9--9--9---12-12-12--14-14-14-14-14-14-14-14--|
C||----------------------------------------------|----------------------------------------------|


D||---------------------------------------|-----------------------------------------------------|
A||---------------------------------------|-----------------------------------------------------|
F||-14-14-14--12-12-12--9-9-9-9-9-9-9-9---|-8-8-8---10-10-10--14-14-14-14-14-14---15-15-15-15---|
C||-x--x--x---x--x--x---x-x-x-x-x-x-x-x---|-x-x-x---x--x--x---x--x--x--x--x--x----x--x--x--x----|
G||-12-12-12--10-10-10--7-7-7-7-7-7-7-7---|-6-6-6---9--9--9---12-12-12-12-12-12---13-13-13-13---|
C||---------------------------------------|-----------------------------------------------------|


D||----------------------------------------------|----------------------------------------------|
A||----------------------------------------------|----------------------------------------------|
F||-12-12-12--14-14-14--16-16-16-16-16-16-16-16--|-10-10-10--14-14-14--16-16-16-16-16-16-16-16--|
C||-x--x--x---x--x--x---x--x--x--x--x--x--x--x---|-x--x--x---x--x--x---x--x--x--x--x--x--x--x---|
G||-10-10-10--12-12-12--14-14-14-14-14-14-14-14--|-9--9--9---12-12-12--14-14-14-14-14-14-14-14--|
C||----------------------------------------------|----------------------------------------------|


D||---------------------------------------|-----|
A||---------------------------------------|-----|
F||-14-14-14--12-12-12--9-9-9-9-9-9-9-9---|--8--|
C||-x--x--x---x--x--x---x-x-x-x-x-x-x-x---|--x--|
G||-12-12-12--10-10-10--7-7-7-7-7-7-7-7---|--6--|
C||---------------------------------------|-----|



Verse
Guitar 1/2:
D||----------------------------------|
A||----------------------------------|
F||----------------------------------| x2
C||----------------------------------|
G||-------------------------2-3-2----|
C||-0-2-5-0-2-5-0-2-5-0-2-5-------5--|


D||------------------------------------------------------------------|
A||------------------------------------------------------------------|
F||------------------------------------------------------------------|
C||---2-5---2-5---2-5---2-5---2-5-2----2-5---2-5---1-4---1-4---1-4-1-|
G||-3-----3-----3-----3-----3--------2-----2-----2-----2-----2-------|
C||------------------------------------------------------------------|


D||-----------------------------------------------------------|
A||-----------------------------------------------------------|
F||-----------------5-----5--------5------5--4---16-16-16-16--|
C||-(2)-(5)---------5-----5---5----5------5--4---x--x--x--x---|
G||-(2)-(5)------3--3---3-3-3-3--3-3--3-3-3--2---14-14-14-14--|
C||-(2)-(5)---------------------------------------------------|
                 .      .   .    .    . .


Pre-Chorus
Guitar 1/2:
D||-------------------------------------------------------------|
A||-------------------------------------------------------------|
F||-5-5---5---7-7-----------------------------------------------|
C||-5-5---5---7-7-5-7-7---7---9-9-0-2-2---2--5-5--1-1---1--5-5--|
G||-3-3---3---5-5-5-7-7---7---9-9-0-2-2---2--5-5--1-1---1--5-5--|
C||---------------5-7-7---7---9-9-0-2-2---2--5-5--1-1---1--5-5--|


D||----------------------------------|
A||----------------------------------|
F||-5-5-5-5-5-5-5-5-4-4-4-4-7-7-7-7--|
C||-5-5-5-5-5-5-5-5-4-4-4-4-7-7-7-7--|
G||-3-3-3-3-3-3-3-3-2-2-2-2-5-5-5-5--|
C||----------------------------------|


Chorus
Guitar 1:
D||------------------------------------------------------------------|
A||------------------------------------------------------------------|
F||-999999999999999977777777777777775555555555555555557777777778888--|
C||-999999999999999977777777777777775555555555555555557777777778888--|
G||-777777777777777755555555555555553333333333333333335555555556666--|
C||------------------------------------------------------------------|


D||---------------------------------------------------|
A||---------------------------------------------------|
F||-999999999999999977777777777777775555555555555555--|
C||-999999999999999977777777777777775555555555555555--|
G||-777777777777777755555555555555553333333333333333--|
C||---------------------------------------------------|


D||------------------------------------------------------------------|
A||-7h8p7h8p7h8p7h8--8h10p8h10p8h10p8h10--7h8p7h8p7h8p7h8-7---7/19~--|
F||------------------------------------------------------------------|
C||------------------------------------------------------------------|
G||------------------------------------------------------------------|
C||------------------------------------------------------------------|


Guitar 2:
D||----------------------------------------------|----------------------------------------------|
A||----------------------------------------------|----------------------------------------------|
F||-12-12-12--14-14-14--16-16-16-16-16-16-16-16--|-10-10-10--14-14-14--16-16-16-16-16-16-16-16--|
C||-x--x--x---x--x--x---x--x--x--x--x--x--x--x---|-x--x--x---x--x--x---x--x--x--x--x--x--x--x---|
G||-10-10-10--12-12-12--14-14-14-14-14-14-14-14--|-9--9--9---12-12-12--14-14-14-14-14-14-14-14--|
C||----------------------------------------------|----------------------------------------------|


D||---------------------------------------|-----------------------------------------------------|
A||---------------------------------------|-----------------------------------------------------|
F||-14-14-14--12-12-12--9-9-9-9-9-9-9-9---|-8-8-8---10-10-10--14-14-14-14-14-14---15-15-15-15---|
C||-x--x--x---x--x--x---x-x-x-x-x-x-x-x---|-x-x-x---x--x--x---x--x--x--x--x--x----x--x--x--x----|
G||-12-12-12--10-10-10--7-7-7-7-7-7-7-7---|-6-6-6---9--9--9---12-12-12-12-12-12---13-13-13-13---|
C||---------------------------------------|-----------------------------------------------------|


D||----------------------------------------------|----------------------------------------------|
A||----------------------------------------------|----------------------------------------------|
F||-12-12-12--14-14-14--16-16-16-16-16-16-16-16--|-10-10-10--14-14-14--16-16-16-16-16-16-16-16--|
C||-x--x--x---x--x--x---x--x--x--x--x--x--x--x---|-x--x--x---x--x--x---x--x--x--x--x--x--x--x---|
G||-10-10-10--12-12-12--14-14-14-14-14-14-14-14--|-9--9--9---12-12-12--14-14-14-14-14-14-14-14--|
C||----------------------------------------------|----------------------------------------------|


D||---------------------------------------|--------------|
A||---------------------------------------|--------------|
F||-14-14-14--12-12-12--9-9-9-9-9-9-9-9---|--11---9---8--|
C||-x--x--x---x--x--x---x-x-x-x-x-x-x-x---|--x----x---x--|
G||-12-12-12--10-10-10--7-7-7-7-7-7-7-7---|--9----7---6--|
C||---------------------------------------|--------------|



Bridge
Guitar 1:
D||-12121212121212121212121212121212101010101010101010101010-|
A||----------------------------------------------------------|
F||----------------------------------------------------------|
C||----------------------------------------------------------|
G||----------------------------------------------------------|
C||----------------------------------------------------------|


D||-1414141414b151515151515-121212121212121212121212--|
A||---------------------------------------------------|
F||---------------------------------------------------|
C||---------------------------------------------------|
G||---------------------------------------------------|
C||---------------------------------------------------|


Guitar 1/2:
D||------------------------------------------------------------------|
A||------------------------------------------------------------------|
F||------------------------------------------------------------------|
C||-4-4-4-5-4-4-4-5-4-4-4-5-4-4-4-5-4-4-4-5-4-4-4-5-4-4-4-5-4-4-4-4--|
G||-2-2-2-3-2-2-2-3-2-2-2-3-2-2-2-3-2-2-2-3-2-2-2-3-2-2-2-3-2-2-2-2--|
C||------------------------------------------------------------------|



Verse
Guitar 1 (Left speaker):
D||---------------------------------------------------------------|
A||---------------------------------------------------------------|
F||---------------------------------------------------------------|
C||---------------------------------------------------------------|
G||-------------------------2-3-2---------------------------------|
C||-0-2-5-0-2-5-0-2-5-0-2-5-------5-0-2-5-0-2-5-0-2-5-0-2-5-0-2-5-|



Chorus
Guitar 1:
D||------------------------------------------------------------------|
A||------------------------------------------------------------------|
F||-999999999999999977777777777777775555555555555555557777777778888--|
C||-999999999999999977777777777777775555555555555555557777777778888--|
G||-777777777777777755555555555555553333333333333333335555555556666--|
C||------------------------------------------------------------------|


D||--------------------------------------------------------|
A||--------------------------------------------------------|
F||-99999999999999997777777777777777555555555555555555-4---|
C||-99999999999999997777777777777777555555555555555555-4---|
G||-77777777777777775555555555555555333333333333333333-2---|
C||--------------------------------------------------------|


Guitar 2:
D||----------------------------------------------|----------------------------------------------|
A||----------------------------------------------|----------------------------------------------|
F||-12-12-12--14-14-14--16-16-16-16-16-16-16-16--|-10-10-10--14-14-14--16-16-16-16-16-16-16-16--|
C||-x--x--x---x--x--x---x--x--x--x--x--x--x--x---|-x--x--x---x--x--x---x--x--x--x--x--x--x--x---|
G||-10-10-10--12-12-12--14-14-14-14-14-14-14-14--|-9--9--9---12-12-12--14-14-14-14-14-14-14-14--|
C||----------------------------------------------|----------------------------------------------|


D||---------------------------------------|-----------------------------------------------------|
A||---------------------------------------|-----------------------------------------------------|
F||-14-14-14--12-12-12--9-9-9-9-9-9-9-9---|-8-8-8---10-10-10--14-14-14-14-14-14---15-15-15-15---|
C||-x--x--x---x--x--x---x-x-x-x-x-x-x-x---|-x-x-x---x--x--x---x--x--x--x--x--x----x--x--x--x----|
G||-12-12-12--10-10-10--7-7-7-7-7-7-7-7---|-6-6-6---9--9--9---12-12-12-12-12-12---13-13-13-13---|
C||---------------------------------------|-----------------------------------------------------|


D||----------------------------------------------|----------------------------------------------|
A||----------------------------------------------|----------------------------------------------|
F||-12-12-12--14-14-14--16-16-16-16-16-16-16-16--|-10-10-10--14-14-14--16-16-16-16-16-16-16-16--|
C||-x--x--x---x--x--x---x--x--x--x--x--x--x--x---|-x--x--x---x--x--x---x--x--x--x--x--x--x--x---|
G||-10-10-10--12-12-12--14-14-14-14-14-14-14-14--|-9--9--9---12-12-12--14-14-14-14-14-14-14-14--|
C||----------------------------------------------|----------------------------------------------|


D||---------------------------------------|--------------|
A||---------------------------------------|--------------|
F||-14-14-14--12-12-12--9-9-9-9-9-9-9-9---|--11---9---8--|
C||-x--x--x---x--x--x---x-x-x-x-x-x-x-x---|--x----x---x--|
G||-12-12-12--10-10-10--7-7-7-7-7-7-7-7---|--9----7---6--|
C||---------------------------------------|--------------|


Outro
Guitar 1/2:
D||----------------------------------------------------------|
A||----------------------------------------------------------|
F||----------------------------------------------------------|
C||-------------------------------------------------0-2-4-5--|
G||-------------------------2-3-2-------------------0-2-4-5--|
C||-0-2-5-0-2-5-0-2-5-0-2-5-------5-0-2-5-0-2-5-0-2-0-2-4-5--|




Tablature Legend
----------------
 h   hammer-on
 p   pull-off
 b   bend
 pb  pre-bend
 r   release bend
 ~   hold / vibrato
 .   palm mute
 /   slide up
 \   slide down
 *   pinch harmonic
 '   natural harmonic
 x   mute note
 T   tap
Suggest correction
Creating personal tab
Creating personal tab
You can edit any tab online and save it as your Personal.

You can edit, replace or remove any tab part or add personal notes – all changes will be seen only by you.

Personal tabs can be accessed anytime from any device, even offline.
Learn more »
comments
print report bad tab
5 comments total. Showing first comments.
0 reply
Mikey-H 35 Aug 03, 2009 07:05 PM

good job man, sounded pretty accurate

0 reply
G0dzilla 10 Aug 07, 2009 09:52 PM

I play it completely different to be honest.

0 reply
Joshua Garcia [tm] 5,568 Aug 07, 2009 10:45 PM

I can guarantee you the intro, pre-chorus, verse, and outro is 100% correct. But anything else might be a little off. That's why I open corrections.

guest
You may want to rate the tab now too:
select rating
Wanna post a correction for this tab? Suggest correction