Oops, an error
Loading. Please wait.

Storm To Pass bass

version 1
version 1

Whole song

Interactive

by Atreyu
5,663 views 1 this week
2 commentsread comments
1 2 3 4 5
x 5
add to favorites
×
Save as Personal and add changes to this tab that will be seen only by you. Learn more ›
×
You can save this tab as Personal to edit and correct it or add notes. All changes will be seen only by you. Learn more »
launch autoscroll
font size
0
reset
guitar tuner
edit
Autoscroll
slow
fast
+/-
esc
set tempo
stop
-------------------------------------------------------------------------------
			     STORM TO PASS - Atreyu
-------------------------------------------------------------------------------

Tabbed By : mariewong

Tuning: Drop C



Intro:
0:20

F|--------------------------------------|
C|----2~-02---3~-35----2~-02----3~-35\--|
G|-0~-------0~------0~-------0~---------|
C|--------------------------------------|



Verse:
Razorwire
Give backs for things we've done
Afterthoughts 
Of past storms weathered before
Oh no! Oh no!
I watch the clouds roll in
Oh no! Oh no!
It's happening again

F|-------------------------------------------------------------------------|
C|-------------------------------------------------------------------------|
G|-0(x16)-3(x16)-0(x16)-3(x16)---------------------------------------------|
C|-----------------------------0-00-000--3-33-333-7-77-777-10-1010-101010--|

F|-------------------------------|
C|-------------------------------|
G|-------------------------------|
C|-0-00-000--3-33-333-2222-5555--|



Chorus:
I'll be
Watching, waiting
Tremble, shaking
Will the storm pass over us today
Will the lightning strike our sins away
Watching, waiting
Fallen, shaking
Will the storm pass over us today
Or is our future looking gray

F|---------------------------------------------------|
C|---------------------------------------------------|
G|---------------------------------------------------|  [x2]
C|-7(x8)-2(x8)-3(x8)-0(x8)--7(x8)-2(x8)-3(x8)-5(x8)--|



Verse:
Aftermath
Much worse than it was before
Battle scars
Some are seen and some are not
Oh no! Oh no!
I watch the clouds roll in
Oh no! Oh no!
It's happening again

F|-------------------------------------------------------------------------|
C|-------------------------------------------------------------------------|
G|-0(x16)-3(x16)-0(x16)-3(x16)---------------------------------------------|
C|-----------------------------0-00-000--3-33-333-7-77-777-10-1010-101010--|

F|-------------------------------|
C|-------------------------------|
G|-------------------------------|
C|-0-00-000--3-33-333-2222-5555--|



Chorus:
I'll be
Watching, waiting
Tremble, shaking
Will the storm pass over us today
Will the lightning strike our sins away
Watching, waiting
Fallen, shaking
Will the storm pass over us today
Or is our future looking gray

F|---------------------------------------------------|
C|---------------------------------------------------|
G|---------------------------------------------------|  [x2]
C|-7(x8)-2(x8)-3(x8)-0(x8)--7(x8)-2(x8)-3(x8)-5(x8)--|



Bridge:
You can't hide from the dark
Well I never though it'd turn out this way
Yeah
You can't hide from the dark
F|------------------------|
C|------------------------|
G|------------------------|
C|-000-222-333-555-5-555--|

F|-----------------------------------------------------------------|
C|-----------------------------------------------------------------|
G|---------------------------------------000-222-333-777-8-8(x15)--|
C|-5-77-5-7-77-55-77-5-77-5-7-77-55-77-5---------------------------|



Solo:

F|---------------------------------------------------------------|
C|---------------------------------------------------------------|
G|----------------5(x16)-8(x16)----------------5(x16)-8(x16)-----|
C|-7(x16)-10(x16)---------------7(x16)-10(x16)---------------7~--|



Chorus:
Watching, waiting
Tremble, shaking
Will the storm pass over us today
Will the lightning strike our sins away
Watching, waiting
Fallen, shaking
Will the storm pass over us today
Or is our future looking gray

F|---------------------------------------------------|
C|---------------------------------------------------|
G|---------------------------------------------------|  [x2]
C|-7(x8)-2(x8)-3(x8)-0(x8)--7(x8)-2(x8)-3(x8)-5(x8)--|



Outro:

F|------------------------------------|
C|------------------------------------|
G|------------------------------------|
C|-5-77-5-7-77-55-77-5-77-5-7-77-57\--|





| /  slide up
| \  slide down
| h  hammer-on
| p  pull-off
| ~  vibrato
| +  harmonic
| x  Mute note
===============================================================================

            
            
Suggest correction
Creating personal tab
Creating personal tab
You can edit any tab online and save it as your Personal.

You can edit, replace or remove any tab part or add personal notes – all changes will be seen only by you.

Personal tabs can be accessed anytime from any device, even offline.
Learn more »
comments
print report bad tab
2 comments total.
0 reply
musea7x 30 Mar 11, 2010 12:50 PM

i don't get it.... the intro is right but the rest doesn't make any sense

0 reply
Bassit4Christ 52 Dec 29, 2011 04:23 AM

This is a great tab :) The only thing i found wrong was that in the verse you put a Bb, where as it should be an Eb

guest
You may want to rate the tab now too:
select rating
Wanna post a correction for this tab? Suggest correction