Oops, an error
Loading. Please wait.

The Squeeze bass

by Atreyu
75 views 1 this week
no commentswrite comment
1 2 3 4 5
3 more votes to show rating
add to favorites
×
Save as Personal and add changes to this tab that will be seen only by you. Learn more ›
×
You can save this tab as Personal to edit and correct it or add notes. All changes will be seen only by you. Learn more »
launch autoscroll
font size
0
reset
guitar tuner
edit
Autoscroll
slow
fast
+/-
esc
set tempo
stop
-------------------------------------------------------------------------------
                             THE SQUEEZE - Atreyu
-------------------------------------------------------------------------------

Tabbed By : Vaughn 'VinnyVee'
e-mail: enjoigrindking@hotmail.com

Tuning: Drop-C

If you're going to rate poorly or say I'm missing notes, please inform me of
any corrections I can address. This is my first tab in Drop-C, and I haven't
trained my ears very well yet, so any feedback or corrections would be much
appreciated. Thanks!

F|-----------------------------------------|
C|-----------------------------------------|
G|-----------------------------------------|
C|-0~--------0-0-0-0-0-0-0-0-0-------3-0---|

Verse A
F|----------------------------------------------------------| x6
C|----------------------------------------------------------| First 2, no
G|-8------------------------8-------------------------------| lyrics.
C|---0--00-0-00-0-00-0-0000---0--00-0-00-6--6-5--6-3-0------|


F|-----------------| Pre-Chorus, Guitars harmonizing
C|-5~--7--7-7-7----| 
G|-----------------|
C|-----------------|

Chorus x2
F|---------------------------------------------------------------------------|
C|---------------------------------------------------------------------------|
G|---------------------------------------------------------------------------|
C|-0-0-0-0-0-0-0-0-0-0-0-0-0-0-0-0-5-5-5-5-5-5-5-5-5-5-5-5-5-5-5-5-----------|

F|---------------------------------------------------------------------------|
C|---------------------------------------------------------------------------|
G|---------------------------------------------------------------------------|
C|-8-8-8-8-8-8-8-8-8-8-8-8-8-8-8-8-7-7-7-7-7-7-7-7-10-10-10-10-10-10-10-10---|

Verse B
F|----------------------------------| 
C|----------------------------------| 
G|-8--------------------------------| 
C|---0--000------------------0-0-0--|

F|---------------------------------------------------------------------------| 
C|---------------------------------------------------------------------------| 
G|-8-------------------------------------------------------------------------| 
C|---0-0-0-0-0-0-0-6-0-5-0-6-6-6-6-6-6-5-5-3-3-3-3-0-0-0---------------------|

F|----------------------------------| 
C|----------------------------------| 
G|-8--------------------------------| 
C|---0-000-------------------0-0-0--|

F|--------------------------------------------------------------| 
C|-----------------------------------------5~--5-5-7-7-7-7------| 
G|-8------------------------------------------------------------| 
C|---0-000-------------------0-3-0-8-7-5-3----------------------|

Chorus x2
F|---------------------------------------------------------------------------|
C|---------------------------------------------------------------------------|
G|---------------------------------------------------------------------------|
C|-0-0-0-0-0-0-0-0-0-0-0-0-0-0-0-0-5-5-5-5-5-5-5-5-5-5-5-5-5-5-5-5-----------|

F|---------------------------------------------------------------------------|
C|---------------------------------------------------------------------------|
G|---------------------------------------------------------------------------|
C|-8-8-8-8-8-8-8-8-8-8-8-8-8-8-8-8-7-7-7-7-7-7-7-7-10-10-10-10-10-10-10-10---|

Bridge
F|-----------------------------------------| x3
C|-----------------------------------------| 
G|-----------------------------------------| 
C|-0~------------------8~------5~----------|

F|-----------------------------------------| x3
C|-----------------------------------------| 
G|-----------------------------------------| 
C|-0~------------------7-7-7-7-8-8-8-8-----|

Solo A x2
F|---------------------------------------------------------------------------| 
C|---------------------------------------------------------------------------| 
G|-8-------------------------------------------------------------------------| 
C|---0-000-------------0-0-0--8-8-888-------------------5-5-5-5-5-5-5\-------|
Solo B
F|---------------------------------------------------------------------------| 
C|---------------------------------------------------------------------------| 
G|-8----------------------------------------------------5-5-5-5-5-5-5-0~-----| 
C|---0-000-------------0-0-0--8-8-888----------------------------------------|


Pre-Chorus B
F|--------------------------| 
C|--------------------------| 
G|-5-5-5-5-5-5-5-5-8-8-8----| 
C|--------------------------|

Chorus
F|---------------------------------------------------------------------------| 
C|---------------------------------------------------------------------------| 
G|-5-5-5-5-5-5-5-5-5-5-5-5-5-5-5-5-------------------------------------------| 
C|---------------------------------5-5-5-5-5-5-5-5-5-5-5-5-5-5-5-5-----------|

F|---------------------------------------------------------------------------| 
C|---------------------------------------------------------------------------| 
G|---------------------------------------------------------------------------| 
C|-8-8-8-8-8-8-8-8-8-8-8-8-8-8-8-8-7-7-7-7-7-7-7-7-10-10-10-10-10-10-10-10---|

Verse A
F|----------------------------------------------------------| x2
C|----------------------------------------------------------| 
G|-8------------------------8-------------------------------| 
C|---0--00-0-00-0-00-0-0000---0--00-0-00-6--6-5--6-3-0------|



| /  slide up
| \  slide down
| h  hammer-on
| p  pull-off
| ~  vibrato
| +  harmonic
| x  Mute note
===============================================================================
Suggest correction
Creating personal tab
Creating personal tab
You can edit any tab online and save it as your Personal.

You can edit, replace or remove any tab part or add personal notes – all changes will be seen only by you.

Personal tabs can be accessed anytime from any device, even offline.
Learn more »
Give kudos to tab author, rate the tab!
1 2 3 4 5
comments
print report bad tab
guest
You may want to rate the tab now too:
select rating
Wanna post a correction for this tab? Suggest correction