Oops, an error
Loading. Please wait.

Theft tab

version 3
version 3

Whole song

Interactive

by Atreyu
1,144 views 1 this week
3 commentsread comments
1 2 3 4 5
x 3
add to favorites
×
Save as Personal and add changes to this tab that will be seen only by you. Learn more ›
×
You can save this tab as Personal to edit and correct it or add notes. All changes will be seen only by you. Learn more »
launch autoscroll
font size
0
reset
how to read this tab
guitar tuner
edit
Autoscroll
slow
fast
+/-
esc
set tempo
stop
              
          
                           The Theft
                            Atreyu
                    A Death-grip on Yesterday

Dropped C Tuning (All Guitars)
Guitar 1 - Dan Jacobs
Guitar 2 - Travis Miguel
Bass - Marc McKnight 

with synthesizer effect on guitar for intro it fades in with these two
chords

Guitar 1
|-5-----5-----|
|-7-----7-----|
|-7-----6-----|
|-------------|
|-------------|
|-------------|

intro

Guitar 1
|-------------------------|--------------------------|
|-------------------------|--------------------------|
|-7-7-7-7-7-9-11----------|--7-7-7-7-7-9-11----------|
|-x-x-x-x-x-x--x----------|--x-x-x-x-x-x--x----------|
|-5-5-5-5-5-7--9----------|--5-5-5-5-5-7--9----------|
|-------------------------|--------------------------|
                                                    
Guitar 2                                            
|-------------------------|--------------------------|
|-------------------------|--------------------------|
|-------------------------|--------------------------|
|-------------------------|--------------------------|
|-0-0-0-0-0-0-0-0-0-0-0-0-|--0-0-0-0-0-0-0-0-0-0-0-0-|
|-0-0-0-0-0-0-0-0-0-0-0-0-|--0-0-0-0-0-0-0-0-0-0-0-0-|

Bass
|-------------------------|--------------------------|
|-------------------------|--------------------------|
|-------------------------|--------------------------|
|-0-----------------------|-12----------11-----------|


Guitar 1
|-------------------------|--------------------------|
|-------------------------|--------------------------|
|-6-6-6-6-6-9-11----------|--6-6-6-6-6-9-11----------|
|-x-x-x-x-x-x--x----------|--x-x-x-x-x-x--x----------|
|-4-4-4-4-4-7--9----------|--4-4-4-4-4-7--9----------|
|-------------------------|--------------------------|

Guitar 2
|-------------------------|--------------------------|
|-------------------------|--------------------------|
|-------------------------|--------------------------|
|-------------------------|--------------------------|
|-4-4-4-4-4-4-4-4-4-4-4-4-|--4-4-4-4-4-4-4-4-4-4-4-4-|
|-4-4-4-4-4-4-4-4-4-4-4-4-|--4-4-4-4-4-4-4-4-4-4-4-4-|

Bass
|-------------------------|--------------------------|
|-------------------------|--------------------------|
|-------------------------|--------------------------|
|-4-----------------------|-11-----------4-----------|

Guitar 1
|-------------------------|--------------------------|
|-------------------------|--------------------------|
|-7-7-7-7-7-9-11----------|--7-7-7-7-7-9-11----------|
|-x-x-x-x-x-x--x----------|--x-x-x-x-x-x--x----------|
|-5-5-5-5-5-7--9----------|--5-5-5-5-5-7--9----------|
|-------------------------|--------------------------|

Guitar 2
|-------------------------|--------------------------|
|-------------------------|--------------------------|
|-------------------------|--------------------------|
|-------------------------|--------------------------|
|-9-9-9-9-9-9-9-9-9-9-9-9-|--9-9-9-9-9-9-9-9-9-9-9-9-|
|-9-9-9-9-9-9-9-9-9-9-9-9-|--9-9-9-9-9-9-9-9-9-9-9-9-|

Bass
|-------------------------|--------------------------|
|-------------------------|--------------------------|
|-------------------------|--------------------------|
|-9-----------------------|--9-9-9-9-14-9-7---5--4---|

Guitar 1
|-------------------------------|
|-------------------------------|
|-10-10-10-10-10-10-7-7-7-7-7-7-|
|--x--x--x--x--x--x-x-x-x-x-x-x-|
|--8--8--8--8--8--8-5-5-5-5-5-5-|
|-------------------------------|

Guitar 2
|-------------------------------|
|-------------------------------|
|-------------------------------|
|-------------------------------|
|-5-5-5-5-5-5-5-5-5-5-5-5-5-5-5-|
|-5-5-5-5-5-5-5-5-5-5-5-5-5-5-5-|

Bass
|-------------------------------|
|-------------------------------|
|-------------------------------|
|-5-----------------------------|

Guitar 1
|-------------------------------|
|-------------------------------|
|-10-10-10-10-10-10-7-7-7-7-7-7-|
|--x--x--x--x--x--x-x-x-x-x-x-x-|
|--8--8--8--8--8--8-5-5-5-5-5-5-|
|-------------------------------|

Guitar 2
|-------------------------------|
|-------------------------------|
|-------------------------------|
|-------------------------------|
|--8-8-8-8-8-8-8-8-8-8-8-8-8-8--|
|--8-8-8-8-8-8-8-8-8-8-8-8-8-8--|

Bass
|-------------------------------|
|-------------------------------|
|-------------------------------|
|-8-----------------------------|

End Intro

Guitar 1
|-5------------------------5----------------------3-----------------------|
|-7------------------------7----------------------3-----------------------|
|-7------------------------6----------------------4-----------------------|
|-------------------------------------------------------------------------|
|-------------------------------------------------------------------------|
|-------------------------------------------------------------------------|
                                       
Guitar 2                              
|-----5-----5-----5-----5-----5-----5-----5-----5-----3-----3-----3-----3-|
|---7-----7-----7-----7-----7-----7-----7-----7-----3-----3-----3-----3---|
|-7-----7-----7-----7-----6-----6-----6-----6-----4-----4-----4-----4-----|
|-------------------------------------------------------------------------|
|-------------------------------------------------------------------------|
|-------------------------------------------------------------------------|

Bass
|-------------------------------------------------------------------------|
|-------------------------------------------------------------------------|
|-------------------------------------------------------------------------|
|-------------------------------------------------------------------------|

Guitar 1
|-6------------5----------|
|-8------------8----------|
|-7------------7----------|
|-------------------------|
|-------------------------|
|-------------------------|

Guitar 2
|-----6-----6-----5-----5-|
|---8-----8-----8-----8---|
|-7-----7-----7-----7-----|
|-------------------------|
|-------------------------|
|-------------------------|

Right now I'm too tired to finish this but I will soon
so have fun with what's there right now

peace
Suggest correction
Creating personal tab
Creating personal tab
You can edit any tab online and save it as your Personal.

You can edit, replace or remove any tab part or add personal notes – all changes will be seen only by you.

Personal tabs can be accessed anytime from any device, even offline.
Learn more »
Give kudos to tab author, rate the tab!
1 2 3 4 5
comments
print report bad tab
3 comments total.
0 reply
cortSP-3 56 Sep 13, 2006 02:50 PM

ehh..not exactly right guitar 2 plays something different in the verse

+1 reply
FranKLynn 20 Aug 09, 2007 05:00 PM

not to be mean, but how in the world did this get approved?

0 reply
FranKLynn 20 Aug 09, 2007 05:01 PM

The verse is wrong, and you might wanna tab the whole song

guest
You may want to rate the tab now too:
select rating
Wanna post a correction for this tab? Suggest correction