Oops, an error
Loading. Please wait.

Theft tab

version 4
version 4

Whole song

Interactive

by Atreyu
536 views 1 this week
2 commentsread comments
1 2 3 4 5
1 last vote to show rating
add to favorites
×
Save as Personal and add changes to this tab that will be seen only by you. Learn more ›
×
You can save this tab as Personal to edit and correct it or add notes. All changes will be seen only by you. Learn more »
launch autoscroll
font size
0
reset
how to read this tab
guitar tuner
edit
Autoscroll
slow
fast
+/-
esc
set tempo
stop
song: the theft
by: Atreyu
tuning: drop c


    lead guitar/intro/chorus(2x)        (2x)
    -----------------------------------|
    -----------------------------------|
    --7-7-7-7-7-7/-11-11-11-11-11-11---|
    --x-x-x-x-x-x/-x--x--x--x--x--x----|
    --5-5-5-5-5-5/-9--9--9--9--9--9----|
    -----------------------------------|

                                       (2x)
    -----------------------------------|
    -----------------------------------|
    --6-6-6-6-6-6/-11-11-11-11-11-11---|
    --x-x-x-x-x-x/-x--x--x--x--x--x----|
    --4-4-4-4-4-4/-9--9--9--9--9--9----|
    -----------------------------------|
                                       (2x)
    -----------------------------------|
    -----------------------------------|
    --7-7-7-7-7-7/-11-11-11-11-11-11---|
    --x-x-x-x-x-x/-x--x--x--x--x--x----|
    --5-5-5-5-5-5/-5--5--5--5--5--5----|
    -----------------------------------|

                                       (2x)
    -----------------------------------|
    -----------------------------------|
    -10-10-10-10-10-10/-7-7-7-7-7-7----|
    -x--x--x--x--x--x-/-x-x-x-x-x-x----|
    -8--8--8--8--8--8-/-5-5-5-5-5-5----|
    -----------------------------------|
                                      0 4 4       /3   8
     rhythm guitar/intro/chorus(2x)   0,4,2 (24x)/ 3 & 8 (12x)
    -----------------------------------|
    -----------------------------------|
    -----------------------------------|
    -------------4---------------------| (this is payed behind the
    -0-----4-----2-----3-----8---------|   lead guitar in the intro,
    -0-----4-----------3-----8---------|  chorus, and the outro)


     verse 1/clean(2x)     (4x)                         (4x)
    -----------5-------------------------5----------|
    ------7------7---7-------------7-------7---7----|
    --------7------7-----------------6-------6------|
    --0-0----------------------0-0------------------|
    ------------------------------------------------|
    ------------------------------------------------|
                          (2x)
    -----------3-----------------------6-------------------5-------|
    ------3------3---3-------------8------8---8---------8----8---8-|
    -------4-------4----------------7-------7------------7-----7---|
    --5-5----------------------0-0------------------0-0------------|
    ---------------------------------------------------------------|
    ---------------------------------------------------------------|


       (Chorus)(2x)

     2nd verse(2x)
    ---------------------------------------------------------------|
    ---------------------------------------------------------------|
    --------------(4x)---------------(4x)----------------(2x)------|
    ------4---7-4------------4---7-4-------------2---5-2-----------|
    --5-5---5------------4-4---4-------------2-2---2---------------|
    ---------------------------------------------------------------|
  p.m.- -   -        p.m.- -   -        p.m. - -   -

    --------------------|
    --------------------|
    ---------------(2x)-|
    ------5---8-5-------|
    --5-5---5-----------|
    --------------------|
  p.m.- -   -

     3rd verse  (3x)
    --------------------------------------------------------|
    --------------------------------------------------------|
    --------------------------------------------------------|
    -555555555555--888888888888--000000000000--444444444444-|
    -555555555555--888888888888--000000000000--444444444444-|
    -555555555555--888888888888--000000000000--444444444444-|

    ----------------------|
    ----------------------|
    ----------------------|
    -555555555555----8----|
    -555555555555----8----|
    -555555555555----8----|
                     let ring

     (Chorus/Outro(2X)


     Well that is the best that I can do. It's about 99.9% right.
     So please rate and play this song to it's hardest.This is an awsome  song and go 
get A deathgrip on Yesterday.

            
            
Suggest correction
Creating personal tab
Creating personal tab
You can edit any tab online and save it as your Personal.

You can edit, replace or remove any tab part or add personal notes – all changes will be seen only by you.

Personal tabs can be accessed anytime from any device, even offline.
Learn more »
Give kudos to tab author, rate the tab!
1 2 3 4 5
comments
print report bad tab
2 comments total.
0 reply
BG_blazin 10 Nov 06, 2006 06:33 PM

this is a great song...ive been looking for a good version of this.

0 reply
FidoFletch 52 Apr 21, 2007 05:01 AM

The easiest song from Atreyu. Gd Job..

guest
Wanna post a correction for this tab? Suggest correction