Oops, an error
Loading. Please wait.

Untitled Finale bass

version 1
version 1

Whole song

Interactive

by Atreyu
1,050 views 1 this week
no commentswrite comment
1 2 3 4 5
3 more votes to show rating
add to favorites
×
Save as Personal and add changes to this tab that will be seen only by you. Learn more ›
×
You can save this tab as Personal to edit and correct it or add notes. All changes will be seen only by you. Learn more »
launch autoscroll
font size
0
reset
guitar tuner
edit
Autoscroll
slow
fast
+/-
esc
set tempo
stop
Untitled Finale     Atreyu
This is just straight off my guitar pro tab of the song so if its wrong there its wrong
and i apologize. I welcome all constructive criticism and any corrections. I know the
fill at the end is wrong, i couldn't figure it out so i just wrote something that 
cool. if anyone knows what it is let me know :) Also im not sure when the bass actually
playing so just stop when you feel theres no need to play anymore :)

F||-----------|-----------|-----------|
C||-----------|-----------|-----------|
G||-----------|-----------|-----------|
C||-----------|-----------|-----------|


              E  E  E  E  E  E  E  E
-----------|--------------------------|
-----------|--------------------------|
-----------|--------------------------|
-----------|--7--7--7--7--7--7--7--7--|


  E  E  E  E  E  E  E  E
--------------------------|
--------------------------|
--------------------------|
--7--7--7--7--7--7--7--7--|


   E   E   E   E   E   E   E   E
----------------------------------|
----------------------------------|
----------------------------------|
--10--10--10--10--10--10--10--10--|


   E   E   E   E   E   E   E   E
----------------------------------|
----------------------------------|
----------------------------------|
--10--10--10--10--10--10--10--10--|


  E  E  E  E  E  E  E  E
--------------------------|
--------------------------|
--------------------------|
--5--5--5--5--5--5--5--5--|


  E  E  E  E  E  E  E  E
--------------------------|
--------------------------|
--------------------------|
--5--5--5--5--5--5--5--5--|


  E  E  E  E  E  E  E  E
--------------------------|
--------------------------|
--------------------------|
--4--4--4--4--4--4--4--4--|


  E  E  E  E  E  E  E  E
--------------------------|
--------------------------|
--------------------------|
--4--4--4--4--4--4--4--4--|


  E  E  E  E  E  E  E  E
--------------------------|
--------------------------|
--------------------------|
--7--7--7--7--7--7--7--7--|


  E  E  E  E  E  E  E  E
--------------------------|
--------------------------|
--------------------------|
--7--7--7--7--7--7--7--7--|


   E   E   E   E   E   E   E   E
----------------------------------|
----------------------------------|
----------------------------------|
--10--10--10--10--10--10--10--10--|


   E   E   E   E   E   E   E   E
----------------------------------|
----------------------------------|
----------------------------------|
--10--10--10--10--10--10--10--10--|


  E  E  E  E  E  E  E  E
--------------------------|
--------------------------|
--------------------------|
--5--5--5--5--5--5--5--5--|


  E  E  E  E  E  E  E  E
--------------------------|
--------------------------|
--------------------------|
--5--5--5--5--5--5--5--5--|


  E  E  E  E  E  E  E  E
--------------------------|
--------------------------|
--------------------------|
--4--4--4--4--4--4--4--4--|


  E  E  E  E  E  E  E  E
--------------------------|
--------------------------|
--------------------------|
--4--4--4--4--4--4--4--4--|


  E  E  E  E  E  E  E  E
--------------------------|
--------------------------|
--------------------------|
--3--3--3--3--3--3--3--3--|


  E  E  E  E  E  E  E  E
--------------------------|
--------------------------|
--------------------------|
--3--3--3--3--3--3--3--3--|


   E   E   E   E   E   E   E   E
----------------------------------|
----------------------------------|
----------------------------------|
--12--12--12--12--12--12--12--12--|


   E   E   E   E   E   E   E   E
----------------------------------|
----------------------------------|
----------------------------------|
--12--12--12--12--12--12--12--12--|


  E  E  E  S S E  E  E  S S
----------------------------|
----------------------------|
----------------------------|
--3--0-----0-0-3--0-----0-0-|


  E  Q    Q    Q    E
-----------------------|
-----------------------|
-----------------------|
--3--0----0----0----0--|


  E  E   E   E   E   E  E  E
------------------------------|
------------------------------|
------------------------------|
--L--7--10--10--10--10--5--5--|


  E  E  E  E  E  E  E  E
--------------------------|
--------------------------|
--------------------------|
--L--9--9--9--9--9--9--9--|


  E  E  E  S S E  E  E  S S
----------------------------|
----------------------------|
----------------------------|
--3--0-----0-0-3--0-----0-0-|


  E  Q    Q    Q    E
-----------------------|
-----------------------|
-----------------------|
--3--0----0----0----0--|


  E  E   E   E   E   E  E  E
------------------------------|
------------------------------|
------------------------------|
--L--7--10--10--10--10--5--5--|


  E  E  E  E  E  E  E  E
--------------------------|
--------------------------|
--------------------------|
--L--9--9--9--9--9--9--9--|


  E  E  E  S S E  E  E  S S
----------------------------|
----------------------------|
----------------------------|
--3--0-----0-0-3--0-----0-0-|


  E  Q    Q    Q    E
-----------------------|
-----------------------|
-----------------------|
--3--0----0----0----0--|


  E  E   E   E   E   E  E  E
------------------------------|
------------------------------|
------------------------------|
--L--7--10--10--10--10--5--5--|


  E  E  E  E  E  E  E  E
--------------------------|
--------------------------|
--------------------------|
--L--9--9--9--9--9--9--9--|


  E  E  E  S S E  E  E  S S
----------------------------|
----------------------------|
----------------------------|
--3--0-----0-0-3--0-----0-0-|


  E  Q    Q    Q    E
-----------------------|
-----------------------|
-----------------------|
--3--0----0----0----0--|


  E  E   E   E   E   E  E  E
------------------------------|
------------------------------|
------------------------------|
--L--7--10--10--10--10--5--5--|


  E  E  E  E  E  E  E  E
--------------------------|
--------------------------|
--------------------------|
--L--9--9--9--9--9--9--9--|


  E  E  E  E  E  E  E  E
--------------------------|
--------------------------|
--------------------------|
--7--7--7--7--7--7--7--7--|


  E  E  E  E  E  E  E  E
--------------------------|
--------------------------|
--------------------------|
--7--7--7--7--7--7--7--7--|


   E   E   E   E   E   E   E   E
----------------------------------|
----------------------------------|
----------------------------------|
--10--10--10--10--10--10--10--10--|


   E   E   E   E   E   E   E   E
----------------------------------|
----------------------------------|
----------------------------------|
--10--10--10--10--10--10--10--10--|


  E  E  E  E  E  E  E  E
--------------------------|
--------------------------|
--------------------------|
--5--5--5--5--5--5--5--5--|


  E  E  E  E  E  E  E  E
--------------------------|
--------------------------|
--------------------------|
--5--5--5--5--5--5--5--5--|


  E  E  E  E  E  E  E  E
--------------------------|
--------------------------|
--------------------------|
--4--4--4--4--4--4--4--4--|


  E  E  E  E  E  E  E  E
--------------------------|
--------------------------|
--------------------------|
--4--4--4--4--4--4--4--4--|


  Q    E  E  E  E  E  E
-------------------------|
-------------------------|
-------------------------|
--0----0--0--0--0--0--0--|


  Q.       Q    Q    E
------------------------|
------------------------|
----------------5-------|
--3br------0---------0--|


  Q    E  E  E  E  E  E
-------------------------|
-------------------------|
-------------------------|
--L----0--0--0--0--0--0--|


  E  E  E  E  E  E  E  E
--------------------------|
--------------------------|
--3--5-----5--7-----------|
-----------------5--5--7--|


        |-3-|          |-3-|
  E  E  S S S E  E  E  S S S E
--------------------------------|
--------------------------------|
--------------------------------|
--L--7--7-7-7-7--3--3--3-3-3-3--|


        |-3-|
  E  E  S S S E  H
----------------------------|
----------------------------|
----------------------------|
--6--6--6-6-6-6--3br--------|


  Q    E  E  E  E  E  E
-------------------------|
-------------------------|
-------------------------|
--0----0--0--0--0--0--0--|


  Q.       Q    Q    E
------------------------|
------------------------|
----------------5-------|
--3br------0---------0--|


  Q    E  E  E  E  E  E
-------------------------|
-------------------------|
-------------------------|
--L----0--0--0--0--0--0--|


  E  E  E  E  E  E  E  E
--------------------------|
--------------------------|
--3--5-----5--7-----------|
-----------------5--5--7--|


        |-3-|          |-3-|
  E  E  S S S E  E  E  S S S E
--------------------------------|
--------------------------------|
--------------------------------|
--L--7--7-7-7-7--3--3--3-3-3-3--|


        |-3-|
  E  E  S S S E  H
----------------------------|
----------------------------|
----------------------------|
--6--6--6-6-6-6--3br--------|


  Q    E  E  E  E  E  E
-------------------------|
-------------------------|
-------------------------|
--0----0--0--0--0--0--0--|


  Q.       Q    Q    E
------------------------|
------------------------|
----------------5-------|
--3br------0---------0--|


  Q    E  E  E  E  E  E
-------------------------|
-------------------------|
-------------------------|
--L----0--0--0--0--0--0--|


  E  E  E  E  E  E  E  E
--------------------------|
--------------------------|
--3--5-----5--7-----------|
-----------------5--5--7--|


        |-3-|          |-3-|
  E  E  S S S E  E  E  S S S E
--------------------------------|
--------------------------------|
--------------------------------|
--L--7--7-7-7-7--3--3--3-3-3-3--|


        |-3-|
  E  E  S S S E  H
----------------------------|
----------------------------|
----------------------------|
--6--6--6-6-6-6--3br--------|


  Q    E  E  E  E  E  E
-------------------------|
-------------------------|
-------------------------|
--0----0--0--0--0--0--0--|


  Q.       Q    Q    E
------------------------|
------------------------|
----------------5-------|
--3br------0---------0--|


  Q    E  E  E  E  E  E
-------------------------|
-------------------------|
-------------------------|
--L----0--0--0--0--0--0--|


  E  E  E  E  E  E  E  E
--------------------------|
--------------------------|
--3--5-----5--7-----------|
-----------------5--5--7--|


        |-3-|          |-3-|
  E  E  S S S E  E  E  S S S E
--------------------------------|
--------------------------------|
--------------------------------|
--L--7--7-7-7-7--3--3--3-3-3-3--|


        |-3-|
  E  E  S S S E  H
----------------------------|
----------------------------|
----------------------------|
--6--6--6-6-6-6--3br--------|


  Q    Q    Q    Q
----------------------|-----------|
----------------------|-----------|
----------------------|-----------|
--0----0--------------|-----------|


  Q    Q    Q    Q
----------------------|-----|
----------------------|-----|
----------------------|-----|
-------0----0---------|-----|


  E  E  E  E  E  E  E  E
--------------------------|
--------------------------|
--------------------------|
--8--8--8--8--8--8--8--8--|


  E  E  E  E  E  E  Q
-------------------------|
-------------------------|
-------------------------|
--8--8--8--8--8--8--0----|


  Q    E  E  E  E  E  E
-------------------------|
-------------------------|
-------------------------|
--0----8--8--8--8--8--8--|


  E  E  E  E  E  E  E  E
--------------------------|
--------------------------|
--------------------------|
--8--8--8--8--------------|


  Q    Q    E  E  E  E
------------------------|
------------------------|
------------5--5--5--5--|
--0----0----------------|


  E  E  E  E  E  E  E  E
--------------------------|
--------------------------|
--5--5--5--5--5--5--5--5--|
--------------------------|


  E  E  Q    Q    E  E
------------------------|
------------------------|
--5--5------------5--5--|
--------0----0----------|


  E  E  E  E  E  E  E  E
--------------------------|
--------------------------|
--5--5--5--5--------------|
--------------7--7--7--7--|


  E  E  E  E  E  E  E  E
--------------------------|
--------------------------|
--------------------------|
--8--8--8--8--8--8--8--8--|


  E  E  E  E  E  E  Q
-------------------------|
-------------------------|
-------------------------|
--8--8--8--8--8--8--0----|


  Q    E  E  E  E  E  E
-------------------------|
-------------------------|
-------------------------|
--0----8--8--8--8--8--8--|


  E  E  E  E  E  E  E  E
--------------------------|-----------|
--------------------------|-----------|
--------------------------|-----------|
--8--8--8--8--------------|-----------|


-----------|-----------|-----------|
-----------|-----------|-----------|
-----------|-----------|-----------|
-----------|-----------|-----------|


-----------|-----------|-----------|
-----------|-----------|-----------|
-----------|-----------|-----------|
-----------|-----------|-----------|


              |-3-|    |-3-|
              S S S E  S S S E  E  E  E  E
-----------|--------------------------------|
-----------|--------------------------------|
-----------|--------------------------------|
-----------|--0-0-0----0-0-0----0--0--0--0--|


  E  E  E  E  E  E  E  E
--------------------------|
--------------------------|
--------------------------|
--0--0--0--0--0--0--0--0--|


        |-3-|    |-3-|
  E  E  S S S E  S S S E  E  E
--------------------------------|
--------------------------------|
--------------------------------|
--0--0--0-0-0----0-0-0----0--0--|


  E  E  E  E  E  E  E  E
--------------------------|
--------------------------|
--------------------------|
--0--0--0--0--0--0--0--0--|


  E  E  E  E  E  E  E  E
--------------------------|
--------------------------|
--------------------------|
--8--8--8--8--8--8--8--8--|


  E  E  E  E  E  E  E  E
--------------------------|
--------------------------|
--------------------------|
--8--8--8--8--8--8--8--8--|


  E  E  E  E  E  E  E  E
--------------------------|
--------------------------|
--------------------------|
--5--5--5--5--5--5--5--5--|


  E  E  E  E   E   E   E   E
------------------------------|
------------------------------|
------------------------------|
--5--5--5--5--10--10--10--10--|


  |-3-|    |-3-|
  S S S E  S S S E  E  E  E  E
--------------------------------|
--------------------------------|
--------------------------------|
--0-0-0----0-0-0----0--0--0--0--|


  E  E  E  E  E  E  E  E
--------------------------|
--------------------------|
--------------------------|
--0--0--0--0--0--0--0--0--|


        |-3-|    |-3-|
  E  E  S S S E  S S S E  E  E
--------------------------------|
--------------------------------|
--------------------------------|
--0--0--0-0-0----0-0-0----0--0--|


  E  E  E  E  E  E  E  E
--------------------------|
--------------------------|
--------------------------|
--0--0--0--0--0--0--0--0--|


  E  E  E  E  E  E  E  E
--------------------------|
--------------------------|
--------------------------|
--8--8--8--8--8--8--8--8--|


  E  E  E  E  E  E  E  E
--------------------------|
--------------------------|
--------------------------|
--8--8--8--8--8--8--8--8--|


  E  E  E  E  E  E  E  E
--------------------------|
--------------------------|
--------------------------|
--5--5--5--5--5--5--5--5--|


  E  E  E  E   E   E   E   E
------------------------------|
------------------------------|
------------------------------|
--5--5--5--5--10--10--10--10--|


  Q    Q    H
---------------------|-----------|
---------------------|-----------|
---------------------|-----------|
--0----0-------------|-----------|


  Q    Q    H
---------------------|-----------|
---------------------|-----------|
---------------------|-----------|
--0----0-------------|-----------|


  E  Q    E  H
----------------------|-----------|
----------------------|-----------|
----------------------|-----------|
--8-------8-----------|-----------|


  Q     H.
---------------------|-----------|
---------------------|-----------|
---------------------|-----------|
--5\-----------------|-----------|


  Q    Q    H
---------------------|-----------|
---------------------|-----------|
---------------------|-----------|
--0----0-------------|-----------|


  Q    Q    H           H.            Q
---------------------|----------------------|
---------------------|----------------------|
---------------------|----------------------|
--0----0-------------|---------------20\----|


  E  Q    E  H
----------------------|-----------|
----------------------|-----------|
----------------------|-----------|
--8-------8-----------|-----------|


  Q     H.
---------------------|-----------|
---------------------|-----------|
---------------------|-----------|
--5\-----------------|-----------|


  E  E  E  E  E  E  E  E
--------------------------|
--------------------------|
--------------------------|
--4--4--4--4--4--4--4--4--|


  E  E  E  E  E  E  E  E
--------------------------|
--------------------------|
--------------------------|
--4--4--4--4--4--4--4--4--|


  E  E  E  E  E  E  E  E
--------------------------|
--------------------------|
--------------------------|
--0--0--0--0--0--0--0--0--|


  E  E  E  E  E  E  E  E
--------------------------|
-----------------2--------|
--2--0-----2--5-----2-----|
--------0--------------0--|


  E  E  E  E  E  E  E  E
--------------------------|
--------------------------|
--------------------------|
--3--3--3--3--3--3--3--3--|


  E  E  E  E  E  E  E  E
--------------------------|
--------------------------|
--------------------------|
--3--3--3--3--3--3--3--3--|


  E  E  E  E  E  E  E  E
--------------------------|
--------------------------|
--5--5--5--5--5--5--5--5--|
--------------------------|


  E  E  E  E  E  E  E  E
--------------------------|
-----------------2--------|
--2--0-----2--5-----2-----|
--------0--------------0--|


  E  E  E  E  E  E  E  E
--------------------------|
--------------------------|
--------------------------|
--4--4--4--4--4--4--4--4--|


  E  E  E  E  E  E  E  E
--------------------------|
--------------------------|
--------------------------|
--4--4--4--4--4--4--4--4--|


  E  E  E  E  E  E  E  E
--------------------------|
--------------------------|
--------------------------|
--0--0--0--0--0--0--0--0--|


  E  E  E  E  E  E  E  E
--------------------------|
--------------------------|
--------------------------|
--0--0--0--0--0--0--0--0--|


  E  E  E  E  E  E  E  E
--------------------------|
--------------------------|
--------------------------|
--3--3--3--3--3--3--3--3--|


  E  E  E  E  E  E  E  E
--------------------------|
--------------------------|
--------------------------|
--3--3--3--3--3--3--3--3--|


  E  E  E  E  E  E  E  E
--------------------------|
--------------------------|
--5--5--5--5--5--5--5--5--|
--------------------------|


  E  E  E  E  E  E  E  E
--------------------------|
--------------------------|
--5--5--5--5--5--5--5--5--|
--------------------------|


  E  E  E  E  E  E  E  E
--------------------------|
--------------------------|
--------------------------|
--4--4--4--4--4--4--4--4--|


  E  E  E  E  E  E  E  E
--------------------------|
--------------------------|
--------------------------|
--4--4--4--4--4--4--4--4--|


  E  E  E  E  E  E  E  E
--------------------------|
--------------------------|
--------------------------|
--0--0--0--0--0--0--0--0--|


  E  E  E  E  E  E  E  E
--------------------------|
-----------------2--------|
--2--0-----2--5-----2-----|
--------0--------------0--|


  E  E  E  E  E  E  E  E
--------------------------|
--------------------------|
--------------------------|
--3--3--3--3--3--3--3--3--|


  E  E  E  E  E  E  E  E
--------------------------|
--------------------------|
--------------------------|
--3--3--3--3--3--3--3--3--|


  E  E  E  E  E  E  E  E
--------------------------|
--------------------------|
--5--5--5--5--5--5--5--5--|
--------------------------|


  E  E  E  E  E  E  E  E
--------------------------|
-----------------2--------|
--2--0-----2--5-----2-----|
--------0--------------0--|


  E  E  E  E  E  E  E  E
--------------------------|
--------------------------|
--------------------------|
--4--4--4--4--4--4--4--4--|


  E  E  E  E  E  E  E  E
--------------------------|
--------------------------|
--------------------------|
--4--4--4--4--4--4--4--4--|


  E  E  E  E  E  E  E  E
--------------------------|
--------------------------|
--------------------------|
--0--0--0--0--0--0--0--0--|


  E  E  E  E  E  E  E  E
--------------------------|
--------------------------|
--------------------------|
--0--0--0--0--0--0--0--0--|


  E  E  E  E  E  E  E  E
--------------------------|
--------------------------|
--------------------------|
--3--3--3--3--3--3--3--3--|


  E  E  E  E  E  E  E  E
--------------------------|
--------------------------|
--------------------------|
--3--3--3--3--3--3--3--3--|


  E  E  E  E  E  E  E  E
--------------------------|
--------------------------|
--5--5--5--5--5--5--5--5--|
--------------------------|


  E  E  E  E  E  E  E  E
--------------------------|
--------------------------|
--5--5--5--5--5--5--5--5--|
--------------------------|


  E  E  E  E  E  E  E  E
--------------------------|
--------------------------|
--------------------------|
--4--4--4--4--4--4--4--4--|


  E  E  E  E  E  E  E  E
--------------------------|
--------------------------|
--------------------------|
--4--4--4--4--4--4--4--4--|


  E  E  E  E  E  E  E  E
--------------------------|
--------------------------|
--------------------------|
--0--0--0--0--0--0--0--0--|


  E  E  E  E  E  E  E  E
--------------------------|
--------------------------|
--------------------------|
--0--0--0--0--0--0--0--0--|


  E  E  E  E  E  E  E  E
--------------------------|
--------------------------|
--------------------------|
--3--3--3--3--3--3--3--3--|


  E  E  E  E  E  E  E  E
--------------------------|
--------------------------|
--------------------------|
--3--3--3--3--3--3--3--3--|


  E  E  E  E  E  E  E  E
--------------------------|
--------------------------|
--5--5--5--5--5--5--5--5--|
--------------------------|


  E  E  E  E  E  E  E  E
--------------------------|
--------------------------|
--5--5--5--5--5--5--5--5--|
--------------------------|


  E  E  E  E  E  E  E  E
--------------------------|
--------------------------|
--------------------------|
--4--4--4--4--4--4--4--4--|


  E  E  E  E  E  E  E  E
--------------------------|
--------------------------|
--------------------------|
--4--4--4--4--4--4--4--4--|


  E  E  E  E  E  E  E  E
--------------------------|
--------------------------|
--------------------------|
--0--0--0--0--0--0--0--0--|


  E  E  E  E  E  E  E  E
--------------------------|
--------------------------|
--------------------------|
--0--0--0--0--0--0--0--0--|


  E  E  E  E  E  E  E  E
--------------------------|
--------------------------|
--------------------------|
--3--3--3--3--3--3--3--3--|


  E  E  E  E  E  E  E  E
--------------------------|
--------------------------|
--------------------------|
--3--3--3--3--3--3--3--3--|


  E  E  E  E  E  E  E  E
--------------------------|
--------------------------|
--5--5--5--5--5--5--5--5--|
--------------------------|


  E  E  E  E  E  E  E  E
--------------------------|-----|-----|-------|
--------------------------|-----|-----|-------|
--5--5--5--5--5--5--5--5--|-----|-----|-------|
----------------------------------------------|

            
            
Suggest correction
Creating personal tab
Creating personal tab
You can edit any tab online and save it as your Personal.

You can edit, replace or remove any tab part or add personal notes – all changes will be seen only by you.

Personal tabs can be accessed anytime from any device, even offline.
Learn more »
Give kudos to tab author, rate the tab!
1 2 3 4 5
comments
print report bad tab
guest
You may want to rate the tab now too:
select rating
Wanna post a correction for this tab? Suggest correction