Oops, an error
Loading. Please wait.

When Two Are One solo tab

version 1
version 1

Solo

Whole song

Interactive

by Atreyu
5,286 views 3 this week
no commentswrite comment
1 2 3 4 5
x 3
add to favorites
×
Save as Personal and add changes to this tab that will be seen only by you. Learn more ›
×
You can save this tab as Personal to edit and correct it or add notes. All changes will be seen only by you. Learn more »
launch autoscroll
font size
0
reset
how to read this tab
guitar tuner
edit
Autoscroll
slow
fast
+/-
esc
set tempo
stop
Song: When Two Are One
Album: Lead Sails Paper Anchor
Year: 2007
Tuning: Drop C
Artist: Atreyu

|----------------------------------------------------------------------|
|----------------------------------------------------------------------|
|-----5-7-8-7-5-7-5---5------------------------------------------------|
|-------------------8---8-5>slide-to-17-then-back-all-the-way-down-----|
|----------------------------------------------------------------------|
|----------------------------------------------------------------------|

|--------------------------17-17bend^18-17-------|
|-----3slide>15-16-15----------------------------|
|------------------------------------------------|
|------------------------------------------------|
|------------------------------------------------|
|------------------------------------------------|

|-----15-17-18-17-15-17-15----15-------------18---------------|
|--------------------------18----18-16-15---------------------|
|-----------------------------------------17----17------------|
|-------------------------------------------------------------|
|-------------------------------------------------------------|
|-------------------------------------------------------------|

|-------------------------------------------------------------|
|-------------------------------------------------------------|
|------------------------------slide>19>>>--------------------|
|-----slide>13-13bend^15-12>>---------------------------------|
|-------------------------------------------------------------|
|-------------------------------------------------------------|


P.S. this is the very first solo in the song, i can safely say the tab is almost perfect.

            
            
Suggest correction
Creating personal tab
Creating personal tab
You can edit any tab online and save it as your Personal.

You can edit, replace or remove any tab part or add personal notes – all changes will be seen only by you.

Personal tabs can be accessed anytime from any device, even offline.
Learn more »
Give kudos to tab author, rate the tab!
1 2 3 4 5
comments
print report bad tab
guest
You may want to rate the tab now too:
select rating
Wanna post a correction for this tab? Suggest correction