Oops, an error
Loading. Please wait.

When Two Are One ukulele

version 1
version 1

Whole song

Interactive

by Atreyu
65 views 1 this week
no commentswrite comment
1 2 3 4 5
2 more votes to show rating
add to favorites
×
Save as Personal and add changes to this tab that will be seen only by you. Learn more ›
×
You can save this tab as Personal to edit and correct it or add notes. All changes will be seen only by you. Learn more »
launch autoscroll
font size
0
reset
transpose
0
reset
display chords
guitar tuner
edit
Autoscroll
slow
fast
+/-
esc
set tempo
stop
Strumming
There is no strumming pattern for this song yet. and get +5 IQ
Intro
i would suggest NOT finger picking here because you play a solo roght after

e 9----------9----------9----------9----------|
b -----11---------11---------11---------11----|
g --10----10---10----10---10----10---10----10-|
d --------------------------------------------|
a --------------------------------------------|
d --------------------------------------------|

e 8---------8----------8---------8---------|
b -----9----------9---------9---------9----|
g --10---10----10---10---10---10---10---10-|
d -----------------------------------------|
a -----------------------------------------|
d -----------------------------------------|

e 8-------8-------8-------8-------|
b ----9-------9-------9-------9---|
g --9---9---9---9---9---9---9---9-|
d --------------------------------|
a --------------------------------|
d --------------------------------|

e 1-------1-------1-------1-------3-------3-------3-------3-------|
b ----2-------2-------2-------2-------4-------4-------4-------4---|
g --3---3---3---3---3---3---3---3---5---5---5---5---5---5---5---5-|
d ----------------------------------------------------------------|
a ----------------------------------------------------------------|
d ----------------------------------------------------------------|

e 4-------4-------4-------4-------4-------4-------4-------4~~---|
b ----6-------6-------6-------6-------6-------6-------6---------|
g --6---6---6---6---6---6---6---6---5---5---5---5---5---5-------|
d --------------------------------------------------------------|
a --------------------------------------------------------------|
d --------------------------------------------------------------|

first solo

e 6---8---9------6-8-9-8-6-8-6-4-6-4-1//\\----6~\\-1~//8--9--8-|
b -------------------------------------------------------------|
g -------------------------------------------------------------|
d -------------------------------------------------------------|
a -------------------------------------------------------------|
d -------------------------------------------------------------|

e 15b16r15~~---13-15-16-15-13-15-13-11-13-11-9-11-9---------------------8~-|
b --------------------------------------------------13-10-11\--------------|
g ------------------------------------------------------------6~b8---------|
d -----------------------------------------------------------------10~-----|
a -------------------------------------------------------------------------|
d -------------------------------------------------------------------------|

verse

e -----------------------------------------|
b -----------------------------------------|
g --------6---6---6--------------6---6---6-|
d --------6---6---6--------------6---6---6-|
a 4-4-44444--44-444------4-4-44444--44-444-|
d -----------------------------------------|

e -----------------------------------------|
b -----------------------------------------|
g -----------------------------------------|
d --------3---3---3--------------3---3---3-|
a --------3---3---3--------------3---3---3-|
d 3-3-33333--33-333------3-3-33333--33-333-|

e -----------------------------------------|
b -----------------------------------------|
g -----------------------------------------|
d --------8---8---8--------------8---8---8-|
a --------8---8---8--------------8---8---8-|
d 8-8-88888--88-888------8-8-88888--88-888-|

e -----------------------------------------|
b -----------------------------------------|
g -----------------------------------------|
d --------1---1---1--------------1---1---1-|
a --------1---1---1--------------1---1---1-|
d 1-1-11111--11-111------1-1-11111--11-111-|

pre-chorus

e ------------------------------------------------------------------------|
b ------------------------------------------------------------------------|
g -------------6--6--6--6~-------------5--5--5--5~-------------6--6--6--6-|
d 8--8--8--8~--6--6--6--6~-3--3--3--3~-5--5--5--5~-8--8--8--8~-6--6--6--6-|
a 8--8--8--8~--4--4--4--4~-3--3--3--3~-3--3--3--3~-8--8--8--8~-4--4--4--4-|
d 8--8--8--8~--------------3--3--3--3~-------------8--8--8--8~------------|

chorus

e ------------------------------------------------------------|
b ------------------------------------------------------------|
g 10---10---13--12--10--13~--13-13~-13--13--12--10--8~-6-5-6~-|
d ------------------------------------------------------------|
a 8----8----11--10--8---11~--11-11~-11--11--10--8---6~-4-3-4~-|
d ------------------------------------------------------------|

e ---------------------------------------------------|
b ---------------------------------------------------|
g 13--12--10--13~--13-13~-13--12--10--8--7~----------|         2x
d ---------------------------------------------------|
a 11--10--8---11~--11-11~-11--10--8---6--5~----------|
d

2nd solo

e /16--15--16~\\----16-15-16b18r16-15-13--11--------------------11----------|
b --------------------------------------------13~\\----13-11-13----13-11-13-|
g --------------------------------------------------------------------------|
d --------------------------------------------------------------------------|
a --------------------------------------------------------------------------|
d --------------------------------------------------------------------------|
this tremolo part is hard...go slow at first, then speed up
e 13119-----------------------------------------///16--15--13--12b13~~~-|
b -----1311913119-------------------------------------------------------|
g ---------------12109-------------------8h10h11------------------------|
d --------------------11108~--7\--8h10h11-------------------------------|
a ----------------------------------------------------------------------|
d ----------------------------------------------------------------------|

bridge (the slow part when the chick is singing)

e -----------------------------------------------------------------|
b -----------------------------------------------------------------|
g 6--5--1~~------5-6-5--3~~------1-0-1~~------5---6--8--6---5----3-|
d 8--6--3~~------6-8-6--5~~------3-1-3~~------6---8--10-8---6----5-|
a -----------------------------------------------------------------|
d -----------------------------------------------------------------|

e ------------------------------------------------------------|
b ------------------------------------------------------------|
g --------------------------------------------6-6-6-6-6-6-6-6-|
d 8-8-8-8-8-8-8-8-------6-6-6-6-6-6-6-6-------6-6-6-6-6-6-6-6-|
a 8-8-8-8-8-8-8-8-------6-6-6-6-6-6-6-6-------4-4-4-4-4-4-4-4-|
d 8-8-8-8-8-8-8-8-------6-6-6-6-6-6-6-6-----------------------|

breakdown type thing

e --------------------------------------|
b --------------------------------------|
g --------------------------------------|
d 3---3---3333-3---3333-3---3333-3--3-4-|
a 3---3---3333-3---3333-3---3333-3--3-4-|
d 3---3---3333-3---3333-3---3333-3--3-4-|

this sounds similar to the ending solo, but i know it isn't right...


e *13p8p6p4h6h8*13p8p6p4h6h8*13p8p6p4h6h8*13p8p6p4h6h8
b ----------------------------------------------------|
g ----------------------------------------------------|
d ----------------------------------------------------|
a ----------------------------------------------------|
d ----------------------------------------------------|

e *14p9p8p6h8h9*13p9p8p6h8h9*13p9p8p6h8h9*13p9p8p6h8h9
b ----------------------------------------------------|
g ----------------------------------------------------|
d ----------------------------------------------------|
a ----------------------------------------------------|
d ----------------------------------------------------|

e *15p11p9p8h9h11*15p11p9p8h9h11*15p11p9p8h9h11*15p11p9p8h9h11
b ------------------------------------------------------------|
g ------------------------------------------------------------|
d ------------------------------------------------------------|
a ------------------------------------------------------------|
d ------------------------------------------------------------|

e *16p13p11p9h11h13*16p13p11p9h11h13*16p13p11p9h11h13*16~~~
b ---------------------------------------------------------|
g ---------------------------------------------------------|
d ---------------------------------------------------------|
a ---------------------------------------------------------|
d ---------------------------------------------------------|

e -------------------------------------------------------------------------------|
---------------------------------------------------------------------------------|
b -------------------------------------------------------------------------------|
---------------------------------------------------------------------------------|
g ------------------10p9p8p7-------------------------------12p11p10p9------------|
---------------------------------------------------------------------------------|
d ---------8h9h10h11--------11p10p9p8-----------10h11h12h13----------13p12p11p10-|
a 8h9h10h11--------------------------10h11h12h13---------------------------------|
---------------------------------------------------------------------------------|
d -------------------------------------------------------------------------------|
---------------------------------------------------------------------------------|

e --------------------------------------------------------99101011111212<13~-|
b ------------------------------------------------11121314-------------------|
g ------------------------101110131010101110131010---------------------------|
d 101110131010101110131010---------------------------------------------------|
a ---------------------------------------------------------------------------|
d ---------------------------------------------------------------------------|

Key
/ - slide up
\ - slide down
* - finger tapping
p - pull-off
h - hammer on
< - artificial harmonic
~ - hold note out (vibrato)
b - bend up to pitch
r - release on pitch
Suggest correction
Creating personal tab
Creating personal tab
You can edit any tab online and save it as your Personal.

You can edit, replace or remove any tab part or add personal notes – all changes will be seen only by you.

Personal tabs can be accessed anytime from any device, even offline.
Learn more »
Give kudos to tab author, rate the tab!
1 2 3 4 5
comments
print report bad tab
guest
Wanna post a correction for this tab? Suggest correction