Oops, an error
Loading. Please wait.

Your Private War intro tab

version 1
version 1

Intro

Whole song

Interactive

by Atreyu
234 views 1 this week
3 commentsread comments
1 2 3 4 5
3 more votes to show rating
add to favorites
×
Save as Personal and add changes to this tab that will be seen only by you. Learn more ›
×
You can save this tab as Personal to edit and correct it or add notes. All changes will be seen only by you. Learn more »
launch autoscroll
font size
0
reset
how to read this tab
guitar tuner
edit
Autoscroll
slow
fast
+/-
esc
set tempo
stop
                             Your Private War - Atreyu
-------------------------------------------------------------------------------
Tabbed by:BlakMetlMayhm
Email:barbariandude2005@yahoo.com

This is the intro that sounds more right to me... I took the bonuse cd from
A Death Grip on Yesterday and watched the part where they play the song. Hope 
this sounds better... Thanks for "positive comments" and do appreciate them.

                          Tuning: Drop C

e|-------------------------------------------------|
B|-------------------------------------------------|
G|---------4/6---------4/6---------4/88888\55------|
D|---------4/6---------4/6---------4/88888\55------|
A|---------2/4---------2/4---------2/66666\33------|
E|-0000000------000000------000000-----------------|


| /  slide up
| \  slide down
| h  hammer-on
| p  pull-off
| ~  vibrato
| +  harmonic
| x  Mute note
===============================================================================

            
            
Suggest correction
Creating personal tab
Creating personal tab
You can edit any tab online and save it as your Personal.

You can edit, replace or remove any tab part or add personal notes – all changes will be seen only by you.

Personal tabs can be accessed anytime from any device, even offline.
Learn more »
Give kudos to tab author, rate the tab!
1 2 3 4 5
comments
print report bad tab
3 comments total.
0 reply
cortSP-3 56 May 04, 2006 12:51 PM

way betta than the other one


i think one of the verses go like this
|-----------------------------------|
|-----------------------------------|
|--4/6666-----------------xxx-------|
|--4/6666-----------------xxx-------|
|--2/4444-----------------xxx-------|
|----------0-6p0-4p0-3p0--xxx-------|

and then u keep repeating

0 reply
BlakMetlMayhm 16 May 04, 2006 01:38 PM

could that be bass?

0 reply
Atticus-Black- 30 Jun 28, 2006 05:39 PM

yoo man again there is a change in one guitar on verse 1 which is the one u have tabbed

guest
You may want to rate the tab now too:
select rating
Wanna post a correction for this tab? Suggest correction