Oops, an error
Loading. Please wait.

Your Private War tab

version 2
version 2

Whole song

Interactive

by Atreyu
1,424 views 1 this week
8 commentsread comments
1 2 3 4 5
x 6
add to favorites
×
Save as Personal and add changes to this tab that will be seen only by you. Learn more ›
×
You can save this tab as Personal to edit and correct it or add notes. All changes will be seen only by you. Learn more »
launch autoscroll
font size
0
reset
how to read this tab
guitar tuner
edit
Autoscroll
slow
fast
+/-
esc
set tempo
stop
Author
Title:Your Private War
Artist:Atreyu
Tuning:Drop C


intro/verse
e|-------------------------------------------|
b|-------------------------------------------|
g|--------5\7---------5\7---------5\99999-7-5|
d|--------x\x---------x\x---------x\xxxxx-x-x|
a|0000000-3\5-0000000-3\5-0000000-3\77777-5-3|
E|0000000-----0000000-----0000000------------|
  .......     .......     .......

e|----------------------|
b|----------------------|
g|5-77/------------5-77/|
d|x-xx/------------x-xx/|
a|3-55/------------3-55/|
E|----------------------|

chorus
e|-----------------------|
b|-----------------------|
g|14-14-14-14-12-12-16-16|
d|-x--x--x--x--x--x--x--x|
a|12-12-12-12-10-10-14-14|
E|-----------------------|

verse II
e|---------------------------------------|
b|---------------------------------------|
g|-----------------------------------5-77|
d|-----------------------------------x-xx|
a|------------------00---------------3-55|
E|0-7p0-5p0-4p0-2p0-00-7p0-5p0-4p0-2-----|
                    .. 

bridge   
guitar I
e|-----------------------------||-------------------------|
b|-----------------------------||-------------------------|
g|--------------------------5*-||-------------------------|
d|-----------------------------||-------------------------|
a|-----------------------------||------------------0-2-3\5|
E|0-7p0-5p0-4p0-2p0-0-5-7-9----||0-7p0-5p0-4p0-2p0--------|

guitar II
e|-----------------------------||------------------------------|
b|-----------------------------||------------------------------|
g|-----------------------------||999999997777777755555554444444|
d|-----------------------------||xxxxxxxxxxxxxxxxxxxxxxxxxxxxxx|
a|-----------------------------||777777775555555533333332222222|
E|-----------------------------||------------------------------|

note:(its still drop C even though i named the strings in standard tuning)

tabbed by peepee182

updated (06/24/06)-adding brigde
updated (07/01/06)-correction on bridge

            
            
Suggest correction
Creating personal tab
Creating personal tab
You can edit any tab online and save it as your Personal.

You can edit, replace or remove any tab part or add personal notes – all changes will be seen only by you.

Personal tabs can be accessed anytime from any device, even offline.
Learn more »
comments
print report bad tab
8 comments total. Showing first comments.
0 reply
cortSP-3 56 Jun 10, 2006 09:44 AM

good tab 'n all but u missin a couple of muted power chords 'n verse 2 should be pull-offs

0 reply
Sevendust rocks 61 Jun 20, 2006 01:33 AM

where's the cool bridge riff?

0 reply
peepee182 267 Jun 21, 2006 07:10 PM

im working on it, its very similar to verse II so it shouldnt be hard

guest
You may want to rate the tab now too:
select rating
Wanna post a correction for this tab? Suggest correction