Oops, an error
Loading. Please wait.

Your Private War tab

version 3
version 3

Whole song

Interactive

by Atreyu
754 views 1 this week
4 commentsread comments
1 2 3 4 5
x 5
add to favorites
×
Save as Personal and add changes to this tab that will be seen only by you. Learn more ›
×
You can save this tab as Personal to edit and correct it or add notes. All changes will be seen only by you. Learn more »
launch autoscroll
font size
0
reset
how to read this tab
guitar tuner
edit
Autoscroll
slow
fast
+/-
esc
set tempo
stop
Your Private War
Atreyu
Drop C

verse I
|-------------------------------------------|
|-------------------------------------------|
|---------4/66--------4/66-------4/9999\666-|
|---------x/xx--------x/xx-------x/xxxx\xxx-|x4
|-------0-2/44------0-2/44-----o-2/7777\444-|
|--000000------000000------00000------------|
   ......      ......      .....


|-----------------------|
|-----------------------|
|-----------------------|
|-4/66------------4/66--|
|-2/44------------2/44--|
|-----------------------|

|---------------------------------|
|---------------------------------|
|---------------------------------|
|-4/66----------------------------|x4
|-2/44-------0------0-------------|
|-------000000-000000-00000-000---|
        ...... ...... ..... ...


Chorus
|------------------------------------------------|
|------------------------------------------------|
|--13-13-13-13-13\10-10-10-10/16-16-16\13-13-13--|
|---x--x--x--x--x\-x--x--x--x/-x--x--x\-x--x--x--|x4
|--11-11-11-11-11\-8--8--8--8/14-14-14\11-11-11--|
|------------------------------------------------|

verse II

|--------------------------------------------------------------------|
|--------------------------------------------------------------------|
|--------------------------------------------------------------------|
|-4/66---------------------------------------------------------------|x4
|-2/44-------------------0000----------------------------------0000--|
|------0-7p0-5p0-4p0-2p0-0000-/11-11-11-11--0-7p0-5p0-4p0-2p0--0000--|
                         ....                                  ....

Chorus x9


Verse III

guitar 1
|----------------------------------------------|
|----------------------------------------------|
|----------------------------------------------|
|-------------------2--------------------------|x13
|---------------2h4---4~*(ah-every-x2)---------|
|-/7^-/5^-/4^----------------------------------|

guitar 2 (comes in after guitar 1 plays verse x4)
|---------------------------------------------------------|
|---------------------------------------------------------|
|-7777777777777-66666666666666-555555555555-4444444444444-|
|-xxxxxxxxxxxxx-xxxxxxxxxxxxxx-xxxxxxxxxxxx-xxxxxxxxxxxxx-|x2
|-5555555555555-44444444444444-333333333333-2222222222222-|
|---------------------------------------------------------|

Chorus x8

verse III x4

end
|------------------|
|--------3(let-----|
|--------2--it-----|
|-0(let--0-ring)---|
|-0--it------------|
|-0-ring)----------|


            
            
Suggest correction
Creating personal tab
Creating personal tab
You can edit any tab online and save it as your Personal.

You can edit, replace or remove any tab part or add personal notes – all changes will be seen only by you.

Personal tabs can be accessed anytime from any device, even offline.
Learn more »
comments
print report bad tab
4 comments total. Showing first comments.
0 reply
up_in_flames 197 Jun 29, 2006 10:25 AM

hey great tab. its about time someone did a complete and good one. thanks.

0 reply
shugo449 530 Jun 29, 2006 11:43 AM

tab rox. as up_in_flames sad, FINALLY!!!

0 reply
cortSP-3 56 Aug 14, 2006 02:40 PM

why is peepee's tab better than mine??

guest
You may want to rate the tab now too:
select rating
Wanna post a correction for this tab? Suggest correction