Oops, an error
Loading. Please wait.

Interlude solo tab

version 1
version 1

Solo

Whole song

Interactive

3,735 views 3 this week
1 commentread comment
1 2 3 4 5
x 5
add to favorites
×
Save as Personal and add changes to this tab that will be seen only by you. Learn more ›
×
You can save this tab as Personal to edit and correct it or add notes. All changes will be seen only by you. Learn more »
launch autoscroll
font size
0
reset
how to read this tab
guitar tuner
edit
Autoscroll
slow
fast
+/-
esc
set tempo
stop
Author
----------------------------------------------------------------------------
                             Interlude - Attack Attack
----------------------------------------------------------------------------


Tuning:Standard

This is the Keyboard part that starts around 0:55.  All the notes are even.
Notes in parentheses are notes I've changed to make it a bit easier to play.
Being that it wasn't written for the guitar, some parts can be a bit akward.
The original notes are still there.

    C#m

e|---------------------------------------------------------------------------|
B|---------------------------------------------12----------------------------|
G|---------------------13--11------11--------------13--11--------------------|
D|-----11--14--13--11----------14------11--14--------------14--13--14--------|
A|---------------------------------------------------------------------------|
E|---------------------------------------------------------------------------|

    A

e|---------------------------------------------------------------------------|
B|--------------------------------------------12-------14------16--17--------|
G|----------------------------13--11-------------(14)------14----------------|
D|--------13--14--11--14--13--------------14---------------------------------|
A|----12------------------------------12----------12-------------------------|
E|---------------------------------------------------------------------------|

    E

e|---------------------------------------------------------------------------|
B|---------------------------------------------------------------------------|
G|--------13--16------16--13--------------16--13------16------13-------------|
D|----14----------14----------16--14--14----------14------14------16---------|
A|---------------------------------------------------------------------------|
E|---------------------------------------------------------------------------|

    B

e|----------------------------------------------------12--14--11--12---------|
B|------------------------------------------------12-------------------------|
G|--------------------------------------------11-----------------------------|
D|--------13--16------16--13------13------13---------------------------------|
A|----14----------14----------14------14-------------------------------------|
E|---------------------------------------------------------------------------|




That's about all there is to it.

            
            
Suggest correction
Creating personal tab
Creating personal tab
You can edit any tab online and save it as your Personal.

You can edit, replace or remove any tab part or add personal notes – all changes will be seen only by you.

Personal tabs can be accessed anytime from any device, even offline.
Learn more »
comments
print report bad tab
1 comment total.
0 reply
jordash7000 120 Mar 22, 2011 04:37 PM

I got the solo:
E|-------------16-14----14-------19-16-14--------------|
B|-14-17-16-14-------17----14-17----------17-16-17-----|
G|-----------------------------------------------------|
D|-----------------------------------------------------|
A|-----------------------------------------------------|
E|-----------------------------------------------------|

E|-------------14----16-14-------19----21----23-24-----|
B|----16-17-------17----------16----------17-----------|
G|-14-------14-------------14-------14-----------------|
D|-----------------------------------------------------|
A|-----------------------------------------------------|
E|-----------------------------------------------------|

E|----16-19----19-16----------19-16----19----16--------|
B|-17-------17-------19-17-19-------17----17----19-----|
G|-----------------------------------------------------|
D|-----------------------------------------------------|
A|-----------------------------------------------------|
E|-----------------------------------------------------|

E|----11-14----14-11----11----11-14-17-24-26-23-24-----|
B|-12-------12-------12----12--------------------------|
G|-----------------------------------------------------|
D|-----------------------------------------------------|
A|-----------------------------------------------------|
E|-----------------------------------------------------|

guest
You may want to rate the tab now too:
select rating
Wanna post a correction for this tab? Suggest correction