Oops, an error
Loading. Please wait.

Stick Stickly bass

version 2
version 2

Whole song

4,464 views 3 this week
3 commentsread comments
1 2 3 4 5
1 last vote to show rating
add to favorites
×
Save as Personal and add changes to this tab that will be seen only by you. Learn more ›
×
You can save this tab as Personal to edit and correct it or add notes. All changes will be seen only by you. Learn more »
launch autoscroll
font size
0
reset
guitar tuner
edit
Autoscroll
slow
fast
+/-
esc
set tempo
stop
Author
Stick Stickly by Attack Attack! 

First registered tab, second real one :D (I did Poker Face – Of Mice and Men bass)

Im doing this because the other tab is wrong, at least I think so. Refer to the 
first version of the guitar tab, that is what Im going off of, because its right. 

Drop C tuning

Intro
F|----------------------------|
C|----------------------------| x8
G|----------------------------|
C|-000-000-0-00--0-00-000-000-|

Chorus
F|----------------------------------------|
C|----------------------------------------| x4
G|----------------------------------------|
C|-8-88-888-888-888-10-1010-101010-555555-|

Then the WOO! Part
I like putting a bass drop in here, your choice.

Breakdown
F|-----------------|
C|-----------------|
G|-----------------| x4
C|-0--0---0--0-----|

Pre-Breakdown 2
F|----------------| I may be a tad off here, but not a lot.
C|----------------|
G|----------------|
C|-8-x16----10-x9-|

Breakdown 2
F|--------------------------------------|
C|--------------------------------------|
G|--------------------------------------|
C|-000-0~-000-0~-00000000-000-0~-000-0~-|




F|-----------------------|
C|-----------------------|
G|-----------------------|
C|-000-000-000-000-0-----|

F|--------------------------|
C|--------------------------|
G|--------------------------|
C|-000-000-000-000--000-/12-|
Play this breakdown twice,leave out the slide the second time through and continue 
with the triplets. 

Clean Vocals Part
F|-----------------------|
C|-----------------------|
G|-----------------------|
C|-8-x12---10-x12---5-x8-|

Chorus
F|----------------------------------------|
C|----------------------------------------| x4
G|----------------------------------------|
C|-8-88-888-888-888-10-1010-101010-555555-|

Breakdown 3 (Part with snare drum)
Wait for drum to play alone then:
F|--------------------|
C|--------------------|
G|--------------------|
C|-000-000-0000-0000--|

(Scream)

F|---------------------|
C|---------------------| x4
G|---------------------|
C|-000-000-0000-0000-0-|

Caleb’s Moment To Shine :D (Synth Part)
F|----------------------------------------|
C|----------------------------------------| x2
G|----------------------------------------|
C|-0-0-0-0--8-8-8-8--3-3-3-3--10-10-10-10-|


Outro
F|--------------------------|
C|--------------------------|
G|--------------------------|
C|-000-0~-000-0~-000-000-0~-|

Hope you enjoyed :D

            
            
Suggest correction
Creating personal tab
Creating personal tab
You can edit any tab online and save it as your Personal.

You can edit, replace or remove any tab part or add personal notes – all changes will be seen only by you.

Personal tabs can be accessed anytime from any device, even offline.
Learn more »
Give kudos to tab author, rate the tab!
1 2 3 4 5
comments
print report bad tab
3 comments total.
0 reply
MadMatt59 10 Aug 22, 2010 03:51 PM

mostly good, but its actually Drop C#

and this part:

Caleb’s Moment To Shine :D (Synth Part)
F|----------------------------------------|
C|----------------------------------------| x2
G|----------------------------------------|
C|-0-0-0-0--8-8-8-8--3-3-3-3--10-10-10-10-|

might be easier to play like this:

|----------------------------------------|
|----------------------------------------| x2
|----------1-1-1-1-----------3-3-3-3-----|
|-0-0-0-0-----------3-3-3-3--------------|

anyways, 4 stars :]

0 reply
MadMatt59 10 Sep 05, 2010 09:32 AM

forgot to add this before, some of the open notes are actually not open
Breakdown 2
F|--------------------------------------|
C|--------------------------------------|
G|--------------------------------------|
C|-111-1~-111-1~-11111111-111-1~-111-1~-|

F|-----------------------|
C|-----------------------|
G|-----------------------|
C|-000-000-000-000-0-----|

F|--------------------------|
C|--------------------------|
G|--------------------------|
C|-000-000-000-000--000-/12-|

Also not open notes lol.

Outro
F|--------------------------|
C|--------------------------|
G|--------------------------|
C|-111-1~-111-1~-111-111-0~-|

still 4 stars :P lol

0 reply
BassKid101 103 Sep 06, 2010 09:06 PM

Hey thanks for the rating! @MadMatt59 yeah, I realize they aren't all open notes now, I tabbed this a while ago, then later on I realized that they way you corrected is how it's played, I just never got around to updating the tab. And yeah, I also know they played in Drop C# on Someday Came Suddenly, again, never updated afterwards lol. Thanks though :)

guest
You may want to rate the tab now too:
select rating
Wanna post a correction for this tab? Suggest correction