Oops, an error
Loading. Please wait.

Were Not The Enemy intro tab

version 1
version 1

Intro

Whole song

Interactive

510 views 1 this week
2 commentsread comments
1 2 3 4 5
2 more votes to show rating
add to favorites
×
Save as Personal and add changes to this tab that will be seen only by you. Learn more ›
×
You can save this tab as Personal to edit and correct it or add notes. All changes will be seen only by you. Learn more »
launch autoscroll
font size
0
reset
how to read this tab
guitar tuner
edit
Autoscroll
slow
fast
+/-
esc
set tempo
stop
-----------------------------------------------------
We're Not The Enemy - Attack! Attack!
-----------------------------------------------------
Tabbed by: Tom
Email:

Awesome song off Attack! Attack!s(not to be confused with the screamo band)
new album The Latest Fashion. I worked this out just by watching them on the music video
and when I saw them live, so I'm pretty sure this is right. I hope
to get the rest soon, and if I tab the other parts then I'll
get it up ASAP. Enjoy :)

Tuning: Drop D

Intro (0:16)

e|--------------------------------------------------------|
B|--------------------------------------------------------|
G|--------------------------------------------------------|
D|--44-44-4--44-44-4--44-44-4 -------------------- -(x2)--|
A|--44-44-4--44-44-4--44-44-4------9-----8----------------|
D|--44-44-4--44-44-4--44-44-4---77---777------------------|

Verse (0:28)
e|------------------------------------------------------------|
B|------------------------------------------------------------|
G|------------------------------------------------------------|
D|--44 -4 44------------------ (then play main riff at 0:35) -|
A|--44- 4-44--------------------------------------------------|
D|--44- 4-44--------------------------------------------------|

************************************

            
            
Suggest correction
Creating personal tab
Creating personal tab
You can edit any tab online and save it as your Personal.

You can edit, replace or remove any tab part or add personal notes – all changes will be seen only by you.

Personal tabs can be accessed anytime from any device, even offline.
Learn more »
Give kudos to tab author, rate the tab!
1 2 3 4 5
comments
print report bad tab
2 comments total.
0 reply
xXxAdESxXx 41 Oct 25, 2010 03:05 PM

why did this show up in my Attack Attack! tab updates O_O

0 reply
wchurchill 50 Oct 28, 2010 10:58 AM

e|--------------------------------------------------------|
B|--------------------------------------------------------|
G|--------------------------------------------------------|
D|--44-44-4--44-44-4--44-44-4 -------------------- -(x2)--|
A|--44-44-4--44-44-4--44-44-4------9---------------------|
D|--44-44-4--44-44-4--44-44-4---77---777-9----------

I fought the last note was wrong so there is my correction :P

guest
Wanna post a correction for this tab? Suggest correction