Oops, an error
Loading. Please wait.

You And Me bass

version 1
version 1

Whole song

Interactive

3,349 views 1 this week
2 commentsread comments
1 2 3 4 5
x 3
add to favorites
×
Save as Personal and add changes to this tab that will be seen only by you. Learn more ›
×
You can save this tab as Personal to edit and correct it or add notes. All changes will be seen only by you. Learn more »
launch autoscroll
font size
0
reset
guitar tuner
edit
Autoscroll
slow
fast
+/-
esc
set tempo
stop
Author
Difficulty
intermediate
                                    You And Me - Attack! Attack!

I'm 100% sure that this is 100% accurate. Why? Its from Attack! Attack!'s Myspace ;]

Intro

G |--------|--------|--------|--------|
D |--------|--------|--------|--------|x 2
A |--------|--------|--------|--------|
E |77777777|77777777|33333333|33333---|

Verse Part 1

G |--------|--------|--------|--------|
D |--------|--------|---54-^-|--------|x 2
A |--57--^-|--57--^-|--5---5-|--5---45|
E |77--7-7-|/7--5-5-|-3------|-3-355--|

Verse Part 2

G |--------|--------|--------|--------|
D |--------|--------|--5-54--|--5-54--|x 2
A |--------|--------|--------|--------|
E |7-7-7-7-|7-7-7-7-|-3-3----|-3-3----|

Pre-Chorus

G |--------|--------|--------|--------|--------|--------|
D |--------|--------|--------|--------|--------|--------|
A |--------|--------|--------|--------|--------|--------|
E |5--77--3|3---5--7|7--33---|5--77--3|3---5--7|7--33333|

Chorus

G |--------|--------|--------|--------|--------|--------|--------|----------|
D |--------|--------|--------|-----5--|--------|--------|--------|----------|
A |--------|--------|--------|------57|--------|--------|--------|1010997755|
E |77777777|77777777|33333333|33333---|55555555|55555557|33333333|----------|

Middle 8 Riff part 1 - (Also same for outro)

G |--------|--------|--------|--------|--------|--------|--------|--------|
D |--------|--------|--------|--------|--------|--------|--------|--------|
A |--------|-555----|--------|-555----|--------|-5555---|--------|-5555---|
E |77-22-33|-----555|77-22-33|-----55-|77-22-33|-----55-|77-22-33|-----55-|

Middle 8 Riff part 2 - 'This is how it goes..'

G |--------|--------|--------|--------|--------|--------|--------|--------|--------|
D |--------|--------|--------|--------|--------|--------|--------|--------|--------|
A |--------|-5555---|--------|-5555---|--------|-5555---|--------|-5555---|--------|
E |77722233|3----55-|77722233|3----55-|77722233|3----55-|77722233|3----555|7-------|

            
            
Suggest correction
Creating personal tab
Creating personal tab
You can edit any tab online and save it as your Personal.

You can edit, replace or remove any tab part or add personal notes – all changes will be seen only by you.

Personal tabs can be accessed anytime from any device, even offline.
Learn more »
Give kudos to tab author, rate the tab!
1 2 3 4 5
comments
print report bad tab
2 comments total.
0 reply
CoheedFan28 469 May 07, 2010 07:28 PM

This tab is flawless, good work my friend

0 reply
brianfhtl 10 Apr 02, 2014 05:52 AM

I check this and is wrong, this is how it works best for me

Verse Part 1

G |--------|--------|--------|---------|
D |--------|-----7h-|-7-545-|----------|x 2
A |--57----|--557---|-------5|--5---45-|
E |77--7-7h|-7------|--------|-3-355--7|

h= hold

Verse Part 2

G |--------|--------|--------|--------|
D |--------|--------|---5-54-|--5-54--|x 2
A |--------|--------|--------|--------|
E |7-7-7-7-|7-7-7-7-|--3-----|--3-----|

Chorus final

G |------------|
D |------------|
A |1~9-77-55-22|
E |------------|

~= slide

guest
You may want to rate the tab now too:
select rating
Wanna post a correction for this tab? Suggest correction