Oops, an error
Loading. Please wait.

Birmingham Chords

504 views 3 this week
no commentswrite comment
1 2 3 4 5
2 more votes to show rating
add to favorites
launch autoscroll
font size
0
reset
transpose
0
reset
simplify chords
display chords
guitar tuner
Autoscroll
slow
fast
+/-
esc
set tempo
stop
Help us to improve Ultimate-Guitar.com Take our survey!
×
Author
From the album "Years (by One Thousand Fingertips)"


Might not be 100%, but it's still the best I could come up with. Enjoy.



Chords used:
   
    G      A     A(2)    C     Em      D
e|--3--||--0--||--5--||--0--||--0--||--2--|
B|--3--||--2--||--5--||--1--||--0--||--3--|
G|--4--||--2--||--6--||--0--||--0--||--2--|
D|--5--||--2--||--7--||--2--||--2--||--0--|
A|--5--||--0--||--7--||--3--||--2--||--0--|
E|--x--||--0--||--x--||--0--||--0--||--0--|


Guitar riff:

e|------------------|
B|---8-10-----------|
G|--------9-7-------|
D|------------9-5---|
A|------------------|
E|------------------|


Intro: G  A(2)  G   Riff


Verse:

G                        
Did you know you kept me warm,

A(2)
When I first walked in?

G
Did you know you kept me warm?

Riff

G
Did you even see my face,

A(2)
Before you turned around

G
Did you even hear me say


Chorus:

A        D   C   Em     
Oh Birmingham,

A           D   C   Em
I don't understand



Verse 2:

G  A(2)  G   Riff

G               
Did you like the way I write,

A(2)
When you found my words?

G
Did they really make you smile?

Riff

G 
Did I really lose my mind,

A(2)
When you disappeared?

G
Will you give me back my mind?


Chorus:

A       D   C   Em
Oh Birmingham,

A           D   C   Em
I don't understand


Solo:

e|-----------------------|
B|-----------------------|
G|-----------------------|   X 7
D|-----------------------|
A|---7----5--------5s7---|
E|----------7-5-3--------|


G


Outro:

A       D  C  Em
Oh Birmingham
Now I understand
Suggest correction
Give kudos to tab author, rate the tab!
1 2 3 4 5
comments
print report bad tab
guest
You may want to rate the tab now too:
select rating
Wanna post a correction for this tab? Suggest correction