Oops, an error
Loading. Please wait.

Broken Things Bass Tab

555 views 1 this week
no commentswrite comment
1 2 3 4 5
please rate
add to favorites
launch autoscroll
font size
0
reset
guitar tuner
Autoscroll
slow
fast
+/-
esc
set tempo
stop
Help us to improve Ultimate-Guitar.com Take our survey!
×
Author
Difficulty
novice
this bass part is really simple. the role of the bass in this song is to sort of follow
be the echo of the guitar.im pretty sure this is right and whatever mistakes i may have
im sure you'll be able to figure it out. just play along with the songs a few times and 
get it fairly quickly. Attack in Black rocks!!! go buy their cd!!

Intro: dont play anything

1rst Verse:

G----------------------------------|
D---7-----7-----7-----4-0-----7----|   X2
A---0-----0-----0-------------0----|
E----------------------------------|

second time end on

G----------------------|
D--7777777777777777777-|
A--0000000000000000000-|
E----------------------|

play verse one more time

dont play anything until chorus

Chorus:

G------------------------------------------------------|
D---7------7-----7------4-0-----77777777777777777777---|
A---0------0-----0--------------00000000000000000000---|
E------------------------------------------------------|

The song goes:
 Intro
 Verse
 Intro
 Chorus
 Verse

whatever, you'll figure it all out by listenning to the song a few times, good luck, 
on
Suggest correction
Give kudos to tab author, rate the tab!
1 2 3 4 5
comments
print report bad tab
guest
You may want to rate the tab now too:
select rating
Please do not post tabs as comments. Select "correction" instead!