Oops, an error
Loading. Please wait.

I Could Turn Tab

1,304 views 1 this week
no commentswrite comment
1 2 3 4 5
x 4
add to favorites
launch autoscroll
font size
0
reset
how to read this tab
guitar tuner
Autoscroll
slow
fast
+/-
esc
set tempo
stop
Help us to improve Ultimate-Guitar.com Take our survey!
×
Author
----------------------------------------------------------------------------                      
I Could Turn - Attack In Black
----------------------------------------------------------------------------
Tabbed by: Chris

Tuning: DADGBe (Drop D)

Intro/Verse:

Guitar 1:
e|-------------------------------5--2---------------|
B|------2(2)--2-----2---2-2--2---5--3---------------|
G|------2(2)--2(2)--2(2)2-2--2---6--4---------------|
D|--4---2-4---2-4---2-4-2-0--2---7--4--4---2h4-4----|
A|--0---0-0---0-0---0-0-0-0--0---------0---0---0----|
D|--0---0-0---0-0---0-0-0-0------------0-------0----|

Guitar 2:
e|--2p0---------------------------------------12----|
B|-----2p0--------------------10-------7-14---14----|
G|---------2---------------------9---7---14---14----|
D|-----------4--2-4-2-0-2--/11-----9-----12---12----|
A|--------------0-0-0-0-0---------------------------|
D|--------------------------------------------------|

Chorus:

Guitar 1:
e|-----------------------------------------------------------|
B|--3-3-3-3-3-3-3-3-2-2-2-2-2-2-2-2-3-3-3-3-2-2-2-2-2-2-2-2--|
G|--4-4-4-4-4-4-4-4-2-2-2-2-2-2-2-2-2-2-2-2-2-2-2-2-2-2-2-2--|
D|--4-4-4-4-4-4-4-4-2-2-2-2-2-2-2-2-0-0-0-0-2-2-2-2-0-0-0-0--|
A|--2-2-2-2-2-2-2-2-0-0-0-0-0-0-0-0---------0-0-0-0----------|
D|-----------------------------------------------------------|

e|-------------------------------------------------------------------|
B|--2-2-2-2-2-2-2-2-2-2-2-2-2-2-2-2----------------------------------|
G|--2-2-2-2-2-2-2-2-2-2-2-2-2-2-2-2----------------------------------|
D|--2-2-2-2-2-2-2-2-2-2-2-2-2-2-2-2-5-5-5-5-5-5-5-5-9-9-9-9-9-9-9-9--|
A|--0-0-0-0-0-0-0-0-0-0-0-0-0-0-0-0-5-5-5-5-5-5-5-5-9-9-9-9-9-9-9-9--|
D|----------------------------------5-5-5-5-5-5-5-5-9-9-9-9-9-9-9-9--|

e|-----------------------------------------------------------------------|
B|--3-3-3-3-2-2-2-2-2-2-2-2-2-2-2-2-2-2-2-2-2-2-2-2-2-2-2-2-3---2---3----|
G|--2-2-2-2-2-2-2-2-2-2-2-2-2-2-2-2-2-2-2-2-2-2-2-2-2-2-2-2-4---2---2----|
D|--0-0-0-0-2-2-2-2-0-0-0-0-2-2-2-2-2-2-2-2-2-2-2-2-2-2-2-2-4---2---0----|
A|----------0-0-0-0---------0-0-0-0-0-0-0-0-0-0-0-0-0-0-0-0-2---0--------|
D|-----------------------------------------------------------------------|

Guitar 2:
e|------------------------------------------0---0---2-----0---0---2---0----|
B|--3-3-3-3-3-3-3-3-2-2-2-2-2-2-2-2-3-3-3-3---2---2---2-----2---2---2---2--|
G|--4-4-4-4-4-4-4-4-2-2-2-2-2-2-2-2-2-2-2-2--------------------------------|
D|--4-4-4-4-4-4-4-4-2-2-2-2-2-2-2-2-0-0-0-0--------------------------------|
A|--2-2-2-2-2-2-2-2-0-0-0-0-0-0-0-0----------------------------------------|
D|-------------------------------------------------------------------------|

e|-----5-----5-----5------------------------------------------|
B|-------5-----5-------------------------------------3-3-3-3--|
G|--/6-----6-----6-----------------------------------2-2-2-2--|
D|-------------------5-5-5-5-5-5-5-5-9-9-9-9-9-9-9-9-0-0-0-0--|
A|-------------------5-5-5-5-5-5-5-5-9-9-9-9-9-9-9-9----------|
D|-------------------5-5-5-5-5-5-5-5-9-9-9-9-9-9-9-9----------|

e|--0---0---2---0-------0---0---0------5-----5-----5-------------------|
B|----2---2---2---2---2---2---2---2------5-----5-----------------------|
G|------------------2---------------/6-----6-----6---------------------|
D|---------------------------------------------------------------------|
A|---------------------------------------------------4/7--7/9--9/12----|
D|---------------------------------------------------------------------|

Verse 2: (Same as first)

Chorus: (Guitar 1 is the same)
        (Guitar 2 varies):

Instead of:                  It changes to:
e|-----5-----5-----5------------------5-----7-5------|
B|-------5-----5------------------------5---------5--|
G|--/6-----6-----6-----------------/6-----6-----6----|
D|---------------------------------------------------|
A|---------------------------------------------------|
D|---------------------------------------------------|

Lyrics:

You should say, should say, some things about me, that I don't like to believe 
Cause I, don't like, the sound, of what I might be when that old ghost is around

I wish I could turn back to those nights and just stay home
And I wish I could learn that my thoughts are clear when I'm alone
Its just that I don't understand anything about love

I should know, should know some things about me, but not as some people might be
But you, your heart is true and that I can see by the way it's dragging you down
Friend, you are the only the only person to me and I've been treating you bad
I, would try, so hard to be the best friend that you could ever have had 

So I wont have to turn back to those nights and just stay home
Maybe I could learn that my thoughts arent clear when I'm alone
And you could teach me anything about love 


And that's it, don't be afraid to improvise in this song as parts of it are
pretty loosely structured.
Rate, comment, thanks!
Suggest correction
comments
print report bad tab
guest
You may want to rate the tab now too:
select rating
Wanna post a correction for this tab? Suggest correction