Oops, an error
Loading. Please wait.

Northern Towns Tab

2,764 views 1 this week
3 commentsread comments
1 2 3 4 5
please rate
add to favorites
launch autoscroll
font size
0
reset
how to read this tab
guitar tuner
Autoscroll
slow
fast
+/-
esc
set tempo
stop
Help us to improve Ultimate-Guitar.com Take our survey!
×
Author
Difficulty
novice
                          Tabbed By: Mark Peters
                     Email: markpeterz@hotmail.co.uk

Tuning: Standard
-
e|---------7-7h9p7--------7-7h9p7--------------------------------7/9\7-------|
B|--5--7/9---------9--7/9------------10--9-------5---12-9-7-5----7/9\7-------|
G|---------------------------------9--------9--6-----------------------------|
D|---------------------------------------------------------------------------|
A|---------------------------------------------------------------------------|
E|---------------------------------------------------------------------------|


This alone took me forever to get it 100% right, and that's what i'm hoping for! I'm 
on the rest.. there's a lot of D shapes in there i think! Awesome song though!
Suggest correction
What's this?
You can suggest a correction to this tab. Community and Mods will review your correction and vote to approve or reject it.
comments
We did not receive enough feedback on this tab! Please rate:
print report bad tab
1 2 3 4 5
3 comments total.
0 reply
mapeterz 1,381 wrote on March 15 2008, 05:09 am

e|---------7-7h9p7--------7-7h9p7---------------------------------7/9\7------|
B|-----7/9---------9--7/9---------9---10--9-------5---12-9-7-5----7/9\7------|
G|--9--------------------------------9--------9--6---------------------------|
D|---------------------------------------------------------------------------|
A|---------------------------------------------------------------------------|
E|---------------------------------------------------------------------------|


I realise Capo 2 and then there's some D shapes in there.. some the chords are pretty obvious to work out.. there's G chord somewhere too.

0 reply
jleex3 108 wrote on October 21 2008, 05:07 pm

perfect.

0 reply
smon93 16 wrote on January 11 2011, 09:50 pm

e|--2--0h2--5---5h7p5s2-------2--0h2--5---5h7p5s2--------3--2---------5--2-0-----9-7--|
B|--3-------------------------3--------------------------3---3-0-3----0------3--------|
G|--2-------------------------2--------------------------0------------0---------------|
D|--0----------------------------------------------------0------------0---------------|
A|-------------------------------------------------------2------------2---------------|
E|------------------------------------------------------3-------------3---------------|

Capo 2

guest
You may want to rate the tab now too:
select rating
Please do not post tabs as comments. Select "correction" instead!