Oops, an error
Loading. Please wait.

Young Leaves Tab

version 1
version 1

Intro

Whole song

Interactive

3,366 views 1 this week
1 commentread comment
1 2 3 4 5
2 more votes to show rating
add to favorites
launch autoscroll
font size
0
reset
how to read this tab
guitar tuner
Autoscroll
slow
fast
+/-
esc
set tempo
stop
Help us to improve Ultimate-Guitar.com Take our survey!
×
Author
Difficulty
Capo
intermediate
2nd fret
capo 2nd fret:

e|-----------------------5------------------------5--------5----------|
B|------5------------------------------5--------------3-------3-------|
G|--7-----6---6----4/6---------7---6h7---7--2/4---------4-------4/7---|
D|7---7---------7------7-----7---7------------------------------------|
A|--------------------------------------------------------------------|
E|--------------------------------------------------------------------|


e|7---5--------2-----0----/5-----4-----------------0------------------|
B|-------------3-----3----/7-----5----7---5----------2--0-------0h2p0-|
G|--7---7-----------------------------7---7----2h4---------2----------|
D|----------0-----0-----0-----0-----0---0---------------------0-------|
A|--------------------------------------------------------------------|
E|--------------------------------------------------------------------|

e|-------5-5--|
B|-------5-5--|
G|2-2/6-------|
D|------------|
A|------------|
E|------------|
Suggest correction
Give kudos to tab author, rate the tab!
1 2 3 4 5
comments
print report bad tab
1 comment total.
0 reply
deathmore 102 Oct 04, 2007 04:26 PM

heres a variation that i think i saw him play live, im not sure, both ways work though
e|7---5--------------------------------------------0------------------|
B|-------------7-----5----/11----9----7---5----------2--0-------0h2p0-|
G|--7---7------7-----7----/10----9----7---7----2h4---------2----------|
D|----------0-----0-----0-----0-----0---0---------------------0-------|
A|--------------------------------------------------------------------|
E|--------------------------------------------------------------------|

guest
You may want to rate the tab now too:
select rating
Wanna post a correction for this tab? Suggest correction