Oops, an error
Loading. Please wait.

Young Leaves Tab

version 2
version 2

Intro

Whole song

Interactive

12,832 views 6 this week
1 commentread comment
1 2 3 4 5
x 8
add to favorites
launch autoscroll
font size
0
reset
how to read this tab
guitar tuner
Autoscroll
slow
fast
+/-
esc
set tempo
stop
Help us to improve Ultimate-Guitar.com Take our survey!
×
Author
Difficulty
Capo
intermediate
2nd fret
-------------------------------------------------------------------------------
                             Young Leaves - Attack in Black
-------------------------------------------------------------------------------
Tabbed by: Jadeshark
Email: smythtim@cogeco.ca

A few small corrections here from the other version I put up so it makes more sense when trying to play it.

Tuning: Standard (Capo 2nd Fret)

E = Eighth Note
Q = Quarter Note
/ = Slide

  E Q  E E Q E E E E E Q  E E E E E E E E E Q   E E E Q   E E E E  E E
e|---------------------5----------------------------------------7-------|
B|-----5---------0-----5------------5-------10--------10------------10--|
G|--7----6---6-----6------6---6-7-----7-----------7-------7---7---------|
D|7--------7---7-----7------7-----7-----7/9-----9---9-------9-----9-----|
A|----------------------------------------------------------------------|
E|----------------------------------------------------------------------|

     E Q  E Q  E  Q   E Q  E E  E E E E E E Q E E E E E E E Q
e|----------------------------------------0--------------------|
B|-----7----5----/10----9----7----5---------2-0-------0--------|
G|-----7----7----/11----9----7----7-6---2-------2---2---2---7--|
D|---0----0----0------0----0----0-----4-----------0-------0/7--|
A|-------------------------------------------------------------|
E|-------------------------------------------------------------|

     E E Q E E E E E Q  E E E E E E E E E Q   E E E Q   E E E E  E E
e|-------------------5----------------------------------------7-------|
B|---5---------0-----5------------5-------10--------10------------10--|
G|-----6---6-----6------6---6-7-----7-----------7-------7---7---------|
D|-------7---7-----7------7-----7-----7/9-----9---9-------9-----9-----|
A|--------------------------------------------------------------------|
E|--------------------------------------------------------------------|

     E Q  E Q  E  Q   E Q  E E  E E E E E E Q E E E E E E E Q E E
e|----------------------------------------0-----------------------|
B|-----7----5----/10----9----7----5---------2-0-------0-------5---|
G|-----7----7----/11----9----7----7-6---2-------2---2---2---7---6-|
D|---0----0----0------0----0----0-----4-----------0-------0/7-----|
A|----------------------------------------------------------------|
E|----------------------------------------------------------------|
Suggest correction
comments
print report bad tab
1 comment total.
0 reply
mymymy12 30 Jun 07, 2009 05:12 PM

i like playing this...i am however to lasy to memorize it...
but good job bud!

guest
You may want to rate the tab now too:
select rating
Wanna post a correction for this tab? Suggest correction