Oops, an error
Loading. Please wait.

Haze tab

version 1
version 1

Whole song

Interactive

7 views 1 this week
no commentswrite comment
1 2 3 4 5
3 more votes to show rating
add to favorites
×
Save as Personal and add changes to this tab that will be seen only by you. Learn more ›
×
You can save this tab as Personal to edit and correct it or add notes. All changes will be seen only by you. Learn more »
launch autoscroll
font size
0
reset
how to read this tab
guitar tuner
edit
Autoscroll
slow
fast
+/-
esc
set tempo
stop
[Intro]
e|--x--x----|--x--x--x--x----|
B|--x--x----|--x--x--x--x----|
G|--x--x----|--x--x--x--x----|
D|--x--x----|--x--x--x--x----|
A|--x--x----|--x--x--x--x----|
D|--x--x----|--x--x--x--x----|

[Verse 1/2]
e|----------------------------------------------------|-----------------------------------------------|
B|----------------------------------------------------|-----------------------------------------------|
G|----------------------------------------------------|--------------------------------7--------------|
D|----------------------------------------------------|--------------------7-----5-----------5--------|
A|--------------------8-----7-------------------------|--------------------------------------------8--|
D|--0-----0--0--0-----------------------0-----0-------|--0-----0--0--0--------------------------------|
PM  -------------                       -------          ---------------------------------------------
                                                                                         
                                                                                                       (x2)
e|----------------------------------------------------|------------------------------|
B|----------------------------------------------------|------------------------------|
G|----------------------------------------------------|--------7---------------------|
D|----------------------------------------------------|-----5-----5--7--5--0---------|
A|--------------------8-----7-------------------------|--7---------------------------|
D|--0-----0--0--0-----------------0-----0-----0-------|------------------------------|
PM  -------------                 ---------------------------------------------------

e|----------------------------------------------------|------------------------------------------------|
B|----------------------------------------------------|--------------------------------10--------------|
G|----------------------------------------------------|--------------------9-----7-----------7---------|
D|--------------------10----9-------------------------|--------------------------------------------10--|
A|----------------------------------------------------|------------------------------------------------|
D|--0-----0--0--0-----------------------0-----0-------|--0-----0--0--0---------------------------------|
PM  -------------                       -------          ----------------------------------------------
                                                                                         
                                                                                                         (x2)
e|----------------------------------------------------|------------------------------|
B|----------------------------------------------------|--------10--------------------|
G|----------------------------------------------------|--9--7-----7--9--7------------|
D|--------------------10----9-------------------------|--------------------7---------|
A|----------------------------------------------------|------------------------------|
D|--0-----0--0--0-----------------0-----0-----0-------|------------------------------|
PM  -------------                 ---------------------------------------------------

e|----------------------------|
B|----------------------------|
G|--------7-------------------|
D|--7--5-----5--7--5--0-------|
A|----------------------------|
D|----------------------------|

[Chorus]
e|----------------------------|----------------------------|
B|----------------------------|----------------------------|
G|----------------------------|----------------------------|
D|--7--7--7--2--2--2--3--3----|--3--5--5--5--5--5--5--5----|
A|--7--7--7--2--2--2--3--3----|--3--5--5--5--5--5--5--5----|
D|--7--7--7--2--2--2--3--3----|--3--5--5--5--5--5--5--5----|
                                                            (x3)
e|----------------------------|----------------------------|
B|----------------------------|----------------------------|
G|-----------2----------------|----------------------------|
D|--0--0--0-----2--0--0--0----|--0--0--0-------------------|
A|--0--0--0-----------0--0----|--0--0--0--3--1--0----------|
D|--0--0--0-----------0--0----|--0--0--0-----------3-------|

e|----------------------------|----------------------------|
B|----------------------------|----------------------------|
G|----------------------------|----------------------------|
D|--7--7--7--2--2--2--3--3----|--3--5--5--5--5--5--5--5----|
A|--7--7--7--2--2--2--3--3----|--3--5--5--5--5--5--5--5----|
D|--7--7--7--2--2--2--3--3----|--3--5--5--5--5--5--5--5----|

e|----------------------------|----------------------------|
B|----------------------------|----------------------------|
G|-----------2----------------|----------------------------|
D|--0--0--0-----2--0--0--0----|--0--0--0-----8-------------|
A|--0--0--0-----------0--0----|--0--0--0-----8-------------|
D|--0--0--0-----------0--0----|--0--0--0-----8-------------|

[Verse 3/4]
e|----------------------------------------------------|-----------------------------------------------|
B|----------------------------------------------------|-----------------------------------------------|
G|----------------------------------------------------|--------------------------------7--------------|
D|----------------------------------------------------|--------------------7-----5-----------5--------|
A|--------------------8-----7-------------------------|--------------------------------------------8--|
D|--0-----0--0--0-----------------------0-----0-------|--0-----0--0--0--------------------------------|
PM  -------------                       -------          ---------------------------------------------
                                                                                         
                                                                                                        (x2)
e|----------------------------------------------------|------------------------------|
B|----------------------------------------------------|------------------------------|
G|----------------------------------------------------|--------7---------------------|
D|----------------------------------------------------|-----5-----5--7--5--0---------|
A|--------------------8-----7-------------------------|--7---------------------------|
D|--0-----0--0--0-----------------0-----0-----0-------|------------------------------|
PM  -------------                 ---------------------------------------------------

e|----------------------------------------------------|------------------------------------------------|
B|----------------------------------------------------|--------------------------------10--------------|
G|----------------------------------------------------|--------------------9-----7-----------7---------|
D|--------------------10----9-------------------------|--------------------------------------------10--|
A|----------------------------------------------------|------------------------------------------------|
D|--0-----0--0--0-----------------------0-----0-------|--0-----0--0--0---------------------------------|
PM  -------------                       -------          ----------------------------------------------
                                                                                         
                                                                                                        (x2)
e|----------------------------------------------------|------------------------------|
B|----------------------------------------------------|--------10--------------------|
G|----------------------------------------------------|--9--7-----7--9--7------------|
D|--------------------10----9-------------------------|--------------------7---------|
A|----------------------------------------------------|------------------------------|
D|--0-----0--0--0-----------------0-----0-----0-------|------------------------------|
PM  -------------                 ---------------------------------------------------

e|----------------|
B|----------------|
G|----------------|
D|-----------0----|
A|-----------0----|
D|----------------|

[Chorus]
e|----------------------------|----------------------------|
B|----------------------------|----------------------------|
G|----------------------------|----------------------------|
D|--7--7--7--2--2--2--3--3----|--3--5--5--5--5--5--5--5----|
A|--7--7--7--2--2--2--3--3----|--3--5--5--5--5--5--5--5----|
D|--7--7--7--2--2--2--3--3----|--3--5--5--5--5--5--5--5----|
                                                            (x3(x2))
e|----------------------------|----------------------------|
B|----------------------------|----------------------------|
G|-----------2----------------|----------------------------|
D|--0--0--0-----2--0--0--0----|--0--0--0-------------------|
A|--0--0--0-----------0--0----|--0--0--0--3--1--0----------|
D|--0--0--0-----------0--0----|--0--0--0-----------3-------|

e|----------------------------|----------------------------|
B|----------------------------|----------------------------|
G|----------------------------|----------------------------|
D|--7--7--7--2--2--2--3--3----|--3--5--5--5--5--5--5--5----|
A|--7--7--7--2--2--2--3--3----|--3--5--5--5--5--5--5--5----|
D|--7--7--7--2--2--2--3--3----|--3--5--5--5--5--5--5--5----|

e|----------------------------|----------------------------|
B|----------------------------|----------------------------|
G|-----------2----------------|----------------------------|
D|--0--0--0-----2--0--0--0----|--0--0--0-----8-------------|
A|--0--0--0-----------0--0----|--0--0--0-----8-------------|
D|--0--0--0-----------0--0----|--0--0--0-----8-------------|

[Bridge]
e|----------------------------|----------------------------|
B|----------------------------|----------------------------|
G|----------------------------|----------------------------|
D|-----------------2----------|-----------3-----0----------| (x8)
A|-----1-----3--------3-------|--5--3-----3-----0----------|
D|--0-----0-----0--------0----|--------0--3-----0----------|
PM  -     -     -

e|----------------------------|----------------------------|
B|----------------------------|----------------------------|
G|----------------------------|----------------------------|
D|-----------5-----3----------|-----------3-----0----------|
A|-----------5-----3----------|-----------3-----0----------|
D|--3--3--3--5-----3----------|--0--0--0--3-----0----------|

e|----------------------------|----------------------------|
B|----------------------------|----------------------------|
G|----------------------------|----------------------------|
D|--2--2--2--3--3--3--8--8----|-----------3-----0--8-------|
A|--2--2--2--3--3--3--8--8----|-----------3-----0--8-------|
D|--2--2--2--3--3--3--8--8----|--0--0--0--3-----0--8-------|

e|----------------------------|----------------------------|
B|----------------------------|----------------------------|
G|----------------------------|----------------------------|
D|-----------5-----3----------|-----------3-----0----------|
A|-----------5-----3----------|-----------3-----0----------|
D|--3--3--3--5-----3----------|--0--0--0--3-----0----------|

e|----------------------------|----------------------------|
B|----------------------------|----------------------------|
G|----------------------------|----------------------------|
D|--2--2--2--3--3--3----------|-----------3-----0--8-------|
A|--2--2--2--3--3--3----------|-----------3-----0--8-------|
D|--2--2--2--3--3--3--0--0----|--0--0--0--3-----0--8-------|

e|----------------------------|----------------------------|
B|----------------------------|----------------------------|
G|----------------------------|----------------------------|
D|-----------5-----3----------|-----------3-----0----------|
A|-----------5-----3----------|-----------3-----0----------|
D|--3--3--3--5-----3----------|--0--0--0--3-----0----------|

e|----------------------------|----------------------------|
B|----------------------------|----------------------------|
G|----------------------------|----------------------------|
D|--2--2--2--3--3--3--8--8----|-----------3-----0--8-------|
A|--2--2--2--3--3--3--8--8----|-----------3-----0--8-------|
D|--2--2--2--3--3--3--8--8----|--0--0--0--3-----0--8-------|

e|----------------------------|----------------------------|
B|----------------------------|----------------------------|
G|----------------------------|----------------------------|
D|-----------5-----3----------|-----------3-----0----------|
A|-----------5-----3----------|-----------3-----0----------|
D|--3--3--3--5-----3----------|--0--0--0--3-----0----------|

e|----------------------------|----------------------------|
B|----------------------------|----------------------------|
G|----------------------------|----------------------------|
D|--2--2--2--3--3--3--8--8----|-----------3-----0--7-------|
A|--2--2--2--3--3--3--8--8----|-----------3-----0--7-------|
D|--2--2--2--3--3--3--8--8----|--0--0--0--3-----0--7-------|

[Chorus]
e|----------------------------|----------------------------|
B|----------------------------|----------------------------|
G|----------------------------|----------------------------|
D|--7--7--7--2--2--2--3--3----|--3--5--5--5--5--5--5--5----|
A|--7--7--7--2--2--2--3--3----|--3--5--5--5--5--5--5--5----|
D|--7--7--7--2--2--2--3--3----|--3--5--5--5--5--5--5--5----|
                                                            (x3)
e|----------------------------|----------------------------|
B|----------------------------|----------------------------|
G|-----------2----------------|----------------------------|
D|--0--0--0-----2--0--0--0----|--0--0--0-------------------|
A|--0--0--0-----------0--0----|--0--0--0--3--1--0----------|
D|--0--0--0-----------0--0----|--0--0--0-----------3-------|

e|----------------------------|----------------------------|
B|----------------------------|----------------------------|
G|----------------------------|----------------------------|
D|--7--7--7--2--2--2--3--3----|--3--5--5--5--5--5--5--5----|
A|--7--7--7--2--2--2--3--3----|--3--5--5--5--5--5--5--5----|
D|--7--7--7--2--2--2--3--3----|--3--5--5--5--5--5--5--5----|


e|----------------------------|----------------------------|
B|----------------------------|----------------------------|
G|-----------2----------------|----------------------------|
D|--0--0--0-----2--0--0--0----|--0--0--0-----8-------------|
A|--0--0--0-----------0--0----|--0--0--0-----8-------------|
D|--0--0--0-----------0--0----|--0--0--0-----8-------------|


*************************************************************************************************************

| x - dead note
| PM - palm mute

*************************************************************************************************************

            
            
Suggest correction
Creating personal tab
Creating personal tab
You can edit any tab online and save it as your Personal.

You can edit, replace or remove any tab part or add personal notes – all changes will be seen only by you.

Personal tabs can be accessed anytime from any device, even offline.
Learn more »
Give kudos to tab author, rate the tab!
1 2 3 4 5
comments
print report bad tab
guest
You may want to rate the tab now too:
select rating
Wanna post a correction for this tab? Suggest correction