Oops, an error
Loading. Please wait.

Santiago tab

25 views 1 this week
no commentswrite comment
1 2 3 4 5
3 more votes to show rating
add to favorites
×
Save as Personal and add changes to this tab that will be seen only by you. Learn more ›
×
You can save this tab as Personal to edit and correct it or add notes. All changes will be seen only by you. Learn more »
launch autoscroll
font size
0
reset
how to read this tab
guitar tuner
edit
Autoscroll
slow
fast
+/-
esc
set tempo
stop
Author
-------------------------------------------------------------------------------
                             Santiago - A77AQUE
-------------------------------------------------------------------------------
Tabbed by:
E-mail:

Tuning: Standard

Intro: (x2)
e|---------------------------------------------------------------------------|
B|---------------------------------------------------------------------------|
G|---------------------------------------------------------------------------|
D|--7-7--7-10-10--10-5-5--5-3-3-------7-7--7-10-10-3-------------------------|
A|--7-7--7-10-10--10-5-5--5-3-3-------7-7--7-10-10-3-------------------------|
E|--5-5--5-8--8---8--3-3--3-1-1-------5-5--5-8--8--1-------------------------|

"Ellos están bien llenos y nosotros hambrientos..." x2
e|---------------------------------------------------------------------------|
B|---------------------------------------------------------------------------|
G|---------------------------------------------------------------------------|
D|--7-7--7-10-10--10-5-5--5-3-3-------7-7--7-10-10-3-3-3---------------------|
A|--7-7--7-10-10--10-5-5--5-3-3-------7-7--7-10-10-3-3-3---------------------|
E|--5-5--5-8--8---8--3-3--3-1-1-------5-5--5-8--8--1-1-1---------------------|

"Así mientras saben, que vamos a esperar..."
e|---------------------------------------------------------------------------|
B|---------------------------------------------------------------------------|
G|-7-7--7-10-10--10-5-5--5-3-2-3------7-7--7-10-10-9---9-10-12-10-9----------|
D|-7-7--7-10-10--10-5-5--5-3-2-3------7-7--7-10-10-9---9-10-12-10-9----------|
A|-5-5--5-8--8---8--3-3--3-1-0-1------5-5--5-8--8--7---7-8--10-8--7----------|
E|---------------------------------------------------------------------------|

Intro: 
e|---------------------------------------------------------------------------|
B|---------------------------------------------------------------------------|
G|---------------------------------------------------------------------------|
D|--7-7--7-10-10--10-5-5--5-3-3-------7-7--7-10-10-3-------------------------|
A|--7-7--7-10-10--10-5-5--5-3-3-------7-7--7-10-10-3-------------------------|
E|--5-5--5-8--8---8--3-3--3-1-1-------5-5--5-8--8--1-------------------------|

"Salgamos a las calles a tomar lo que es nuestro..." x2
e|---------------------------------------------------------------------------|
B|---------------------------------------------------------------------------|
G|---------------------------------------------------------------------------|
D|--7-7--7-10-10--10-5-5--5-3-3-------7-7--7-10-10-3-3-3---------------------|
A|--7-7--7-10-10--10-5-5--5-3-3-------7-7--7-10-10-3-3-3---------------------|
E|--5-5--5-8--8---8--3-3--3-1-1-------5-5--5-8--8--1-1-1---------------------|

"Mirando a lo lejos, se puede divisar..."
e|---------------------------------------------------------------------------|
B|---------------------------------------------------------------------------|
G|-7-7--7-10-10--10-5-5--5-3-2-3------7-7--7-10-10-9---9-10-12-10-9----------|
D|-7-7--7-10-10--10-5-5--5-3-2-3------7-7--7-10-10-9---9-10-12-10-9----------|
A|-5-5--5-8--8---8--3-3--3-1-0-1------5-5--5-8--8--7---7-8--10-8--7----------|
E|---------------------------------------------------------------------------|

"Santiago no duerme más..." 
e|---------------------------------------------------------------------------|
B|---------------------------------------------------------------------------|
G|---------------------------------------------------------------------------|
D|-8-8--8-10-10--10-12-12--12-7-7---8-8--8-10-10--10-12-12--12-12------------|
A|-8-8--8-10-10--10-12-12--12-7-7---8-8--8-10-10--10-12-12--12-12------------|
E|-6-6--6-8--8---8--10-10--10-5-5---6-6--6-8--8---8--10-10--10-10------------|

"La autoridad dio un paso al costado..." x2
e|---------------------------------------------------------------------------|
B|---------------------------------------------------------------------------|
G|---------------------------------------------------------------------------|
D|--7-7--7-10-10--10-5-5--5-3-3-------7-7--7-10-10-3-3-3---------------------|
A|--7-7--7-10-10--10-5-5--5-3-3-------7-7--7-10-10-3-3-3---------------------|
E|--5-5--5-8--8---8--3-3--3-1-1-------5-5--5-8--8--1-1-1---------------------|

"Algunas personas nunca comprenderán..."
e|---------------------------------------------------------------------------|
B|---------------------------------------------------------------------------|
G|-7-7--7-10-10--10-5-5--5-3-2-3------7-7--7-10-10-9---9-10-12-10-9----------|
D|-7-7--7-10-10--10-5-5--5-3-2-3------7-7--7-10-10-9---9-10-12-10-9----------|
A|-5-5--5-8--8---8--3-3--3-1-0-1------5-5--5-8--8--7---7-8--10-8--7----------|
E|---------------------------------------------------------------------------|

"Santiago no duerme más..." 
e|---------------------------------------------------------------------------|
B|---------------------------------------------------------------------------|
G|---------------------------------------------------------------------------|
D|-8-8--8-10-10--10-12-12--12-7-7---8-8--8-10-10--10-12-12--12-12------------|
A|-8-8--8-10-10--10-12-12--12-7-7---8-8--8-10-10--10-12-12--12-12------------|
E|-6-6--6-8--8---8--10-10--10-5-5---6-6--6-8--8---8--10-10--10-10------------|

Solo:
Lead guitar:
e|----------------------------------------------------------------------------------------18~18~18~---|
B|------------------------------19b19b19b19b19b--19-17-15-14---14-15----14-15-------12----------------|
G|---------------2-4-2-4---------------------------------------------14-------14-16-------------------|
D|--------2-4-5---------------------------------------------------------------------------------------|
A|-2-4-5----------------------------------------------------------------------------------------------|
E|----------------------------------------------------------------------------------------------------|

Rhythm guitar: x4
e|---------------------------------------------------------------------------|
B|---------------------------------------------------------------------------|
G|---------------------------------------------------------------------------|
D|-9--9-9-12--12-12-7--7-7-5--5-5----9--9-9-12--12-12-5--5-5-----------------|
A|-9--9-9-12--12-12-7--7-7-5--5-5----9--9-9-12--12-12-5--5-5-----------------|
E|-7--7-7-10--10-10-5--5-5-3--3-3----7--7-7-10--10-10-3--3-3-----------------|

"Algunas personas nunca comprenderán..."
e|---------------------------------------------------------------------------|
B|---------------------------------------------------------------------------|
G|-7-7--7-10-10--10-5-5--5-3-2-3------7-7--7-10-10-9---9-10-12-10-9----------|
D|-7-7--7-10-10--10-5-5--5-3-2-3------7-7--7-10-10-9---9-10-12-10-9----------|
A|-5-5--5-8--8---8--3-3--3-1-0-1------5-5--5-8--8--7---7-8--10-8--7----------|
E|---------------------------------------------------------------------------|

************************************
Suggest correction
Creating personal tab
Creating personal tab
You can edit any tab online and save it as your Personal.

You can edit, replace or remove any tab part or add personal notes – all changes will be seen only by you.

Personal tabs can be accessed anytime from any device, even offline.
Learn more »
Give kudos to tab author, rate the tab!
1 2 3 4 5
comments
print report bad tab
guest
You may want to rate the tab now too:
select rating
Wanna post a correction for this tab? Suggest correction