Oops, an error
Loading. Please wait.

Thieves Bass Tab

50 views 1 this week
no commentswrite comment
1 2 3 4 5
3 more votes to show rating
add to favorites
launch autoscroll
font size
0
reset
guitar tuner
Autoscroll
slow
fast
+/-
esc
set tempo
stop
Help us to improve Ultimate-Guitar.com Take our survey!
×
Author
Thieves by Atticus

Tuning EADG

Intro/Verse 1

G|------------------------------------------------------------------|
D|-----------------------3--33-------0--00--------------------------|
A|--0--00-----3--33-------------------------------------------------|   
E|------------------------------------------------------------------|

Chorus

G|---------5-----5-----5--------------------------------------------|
D|-----0h57-7---------------------------3----------3----------------|
A|--00-------------55----5-0-33-33-33-------------------------------|   x4
E|-------------------------------------------1-1------1-------------|

Intro/Riff

G|------------------------------------------------------------------|
D|-----------------------3--33-------0--00--------------------------|
A|--0--00-----3--33-------------------------------------------------|   
E|------------------------------------------------------------------|

Verse 2

G|------------------------------------------------------------------|
D|-----------------------3--3333333-------0--000000-----------------|
A|--0--00-----3--3333333--------------------------------------------|   
E|------------------------------------------------------------------|

Chorus

G|---------5-----5-----5--------------------------------------------|
D|-----0h57-7---------------------------3----------3----------------|
A|--00-------------55----5-0-33-33-33-------------------------------|   x3
E|-------------------------------------------1-1------1-------------|

G|---------5-----5-----5-------------------------------|
D|-----0h57-7------------------------------------------|
A|--00-------------55----5-0-33333333------------------|   
E|-----------------------------------------------------|

Bridge

G|----------------------------------------------------|
D|--3333---33333-----5555-----------------------------|
A|---------------5------------------------------------|   x4
E|----------------------------------------------------|

G|---------------------------------------------------|
D|-----------333--------555---------333--------------|
A|--0--5-3-------00000-------33333-------------------| x4 
E|---------------------------------------------------|

G|--------------------------------------------|
D|--------------------------------------------|
A|--00000--0555--033333-----------------------| x4  
E|-----------------------111------------------|

Outro

G|---------5-----5-----5--------------------------------------------|
D|-----0h57-7---------------------------3----------3----------------|
A|--00-------------55----5-0-33-33-33-------------------------------|   x4
E|-------------------------------------------1-1------1-------------|
Suggest correction
Give kudos to tab author, rate the tab!
1 2 3 4 5
comments
print report bad tab
guest
You may want to rate the tab now too:
select rating
Wanna post a correction for this tab? Suggest correction