Oops, an error
Loading. Please wait.

Johnny Tab

244 views 1 this week
no commentswrite comment
1 2 3 4 5
please rate
add to favorites
launch autoscroll
font size
0
reset
how to read this tab
guitar tuner
Autoscroll
slow
fast
+/-
esc
set tempo
stop
Help us to improve Ultimate-Guitar.com Take our survey!
×
Author
                   |-------------------------------|
                   |Johnny by attitude adjustment  |
                   |-------------------------------| 
.  - palm mute           /  - slide up to
\  - slide down to       ~  - vibrato
h  - hammer on           b  - Bend
p  - pull off            Suffixes for bend
t  - tap                 f  - full bend    h - half bend
ph - pinched harmonic    q  - quarter bend t - tap bend
*  - see comment         ^  - Hold bend    r release bend
x  - Stuccatto           ~  - vibrato bend
,  - slight palm mute    () - ghost note, sustained note
"  - tremolo note        <> - Trill

Tuning E A D G B E  tuning is slightly lower then E on the recording

I hope you guys know who Attitude Adjustment is!!!
http://www.myspace.com/attitudea
 
Bass Intro:
|-------------------------------------------------------------------|
|-------------------------------------------------------------------|
|------------2-1---------------2-1----------------------------------|
|-0---3---1------2--0---3---1------2--------------------------------|

 Guitars come in at (0:09)
 Riff A 4x
|-------------------------------------------------------------------|
|-------------------------------------------------------------------|
|-------------------------------------------------------------------|
|-2----5----3-----4-3-----------------------------------------------|
|-2----5----3-3-3-2-1-4---------------------------------------------|
|-0----3----1-1-1-----2---------------------------------------------|
              . .

 Riff B 4x
|-------------------------------------------------------------------|
|-------------------------------------------------------------------|
|-------------------------------------------------------------------|
|-2----4----3-------------------------------------------------------|
|-2----2----1--4-3--------------------------------------------------|
|-0----2----1--2-1--------------------------------------------------|

Play Riff A 4x

 Riff C
|-------------------------------------------------------------------|
|-------------------------------------------------------------------|
|------10\------------7\----------10\------------7---4-4------------|
|-2----10\------------7\---2------10\------------7---4-4---2--------|
|-2-----8\------------5\---2-------8\------------5---2-2---2--------|
|-0-----------0-0-0-0------0-------------0-0-0-0-----------0--------|
              . . . .                    . . . .
 Riff D
|-------------------------------------------------------------------|
|-------------------------------------------------------------------|
|-------------------------------------------------------------------|
|-------------------------------------------------------------------|
|-2----------5-----7-----8----------7-----5--5----------------------|
|-0-00000000-3-000-5-000-6-66666666-5-555-3--3----------------------|
    ........   ...   ...   ........   ...
  Only play this on the 2nd time
|-------------------------------------------------------------------|
|-------------------------------------------------------------------|
|-------------------------------------------------------------------|
|-------------------------------------------------------------------|
|-2----------5-----7-----8----------7-----5--5----------------------|
|-0----------3-----5-----6----------5-----3--3----------------------|

 Riff E1
|-------------------------------------------------------------------|
|-------------------------------------------------------------------|
|-------------------------------------------------------------------|
|-------------------------------------------------------------------|
|------------------8---8------------------9---9---------------------|
|-0000-3-000-5-000-6-0-6-0000-3-000-5-000-7-0-7---------------------|
  .... . ... . ...

 Riff E2
|-------------------------------------------------------------------|
|-------------------------------------------------------------------|
|-------------------------------------------------------------------|
|-------------------------------------------------------------------|
|------------------8-7-----------------10-9-------------------------|
|-0000-3-000-5-000-6-5-0000-3-000-5-000-8-7-------------------------|

Repeat Riff D

Repeat the whole intro thing again with pick scratches and whammy
bar sounds over it... Enjoy! Later!


END
Suggest correction
What's this?
You can suggest a correction to this tab. Community and Mods will review your correction and vote to approve or reject it.
comments
We did not receive enough feedback on this tab! Please rate:
print report bad tab
1 2 3 4 5
guest
You may want to rate the tab now too:
select rating
Please do not post tabs as comments. Select "correction" instead!