Oops, an error
Loading. Please wait.

A Violent Yet Flammable World Bass Tab

529 views 1 this week
no commentswrite comment
1 2 3 4 5
please rate
add to favorites
launch autoscroll
font size
0
reset
guitar tuner
Autoscroll
slow
fast
+/-
esc
set tempo
stop
Help us to improve Ultimate-Guitar.com Take our survey!
×
Author
Band - Au Revoir Simone
Song - A Violent Yet Flammable World
Album - The Bird of Music
Track - 5
Bassist - Unknown

Intro and First Verse
G----------------------------------------|
D--------13----13------------13----13----|
A-11--14----14----14--10--14----14----14-|
E----------------------------------------| x1

G----------------------------------------|
D--------13----13------------14----14----|
A-11--14----14----14--11--14----14----14-|
E----------------------------------------| x1

Play the above 4 more times, and then play
G----------------------------------------|
D--------13----13------------13----13----|
A-11--14----14----14--10--14----14----14-|
E----------------------------------------| x1

Second Verse
G-------------------------------------------|
D-------------------------------------------|
A-11~~~~~~~-----------14~~~~~~~~-10~~~~~~~~-|
E-----------12~~~~~~~-----------------------| x2

First Chorus
G-------------------------------------------|
D-------------------------------------------|
A-------------------------------------------|
E-4~~~~~~~~-0~~~~~~~~-7~~~~~~~~~-3~~~~~~~~~-| x2

Third Verse
G----------------------------------------|
D--------13----13------------13----13----|
A-11--14----14----14--10--14----14----14-|
E----------------------------------------| x2

G----------------------------------------|
D--------13----13------------14----14----|
A-11--14----14----14--11--14----14----14-|
E----------------------------------------| x1

G----------------------------------------|
D--------13----13------------13----13----|
A-11--14----14----14--10--14----14----14-|
E----------------------------------------| x1

Second Chorus
G-----------------------------------------|
D-----------------------------------------|
A-----------------------------------------|
E-4-4--4-4--0-0--0-0--7-7--7-7--3-3--3-3--| x1

G--------------------------------------------------------|
D--------------------------------------------------------|
A------6---6---------7---7---------6---6---------6---6---|
E-4--7---7---7--3--7---7---7--4--7---7---7--3--7---7---7-| x1

Bridge
G------------------------------------------|
D------------------------------------------|
A-1-1--1-1--3-3--3-3--4-4--4-4--7-7--10-10-|
E------------------------------------------| x3

G------------------------------------------|
D------------------------------------------|
A-1---------3---------4---------7----10----|
E------------------------------------------| x1

G-------------------------------------------------------------------|
D-------------------------------------------------------------------|
A-1--1-1--1--1-1--3--3-3--3--3-3--4--4-4--4--4-4--7--7-7--10--10-10-|
E-------------------------------------------------------------------| x3

G----------------------|
D----------------------|
A-10--10-10--10--10-10-|
E----------------------| x1

Ending
G--------------------------------------------------------|
D--------------------------------------------------------|
A------6---6---------7---7---------6---6---------6---6---|
E-4--7---7---7--3--7---7---7--4--7---7---7--3--7---7---7-| x2
Suggest correction
Give kudos to tab author, rate the tab!
1 2 3 4 5
comments
print report bad tab
guest
You may want to rate the tab now too:
select rating
Wanna post a correction for this tab? Suggest correction