Oops, an error
Loading. Please wait.

Dark Halls Bass Tab

743 views 1 this week
no commentswrite comment
1 2 3 4 5
excellent!
x 1
add to favorites
launch autoscroll
font size
0
reset
guitar tuner
Tab Pro tools
  • play this tab
  • loop segment
  • change instrument
  • show fretboard
  • metronome
Autoscroll
slow
fast
+/-
esc
set tempo
stop
Contributor
Band - Au Revoir Simone
Song - Dark Halls
Album - The Bird of Music
Track - 7
Bassist - Unknown

Intro
G--------------------------------|
D-6~~~~~------------------6~~~-8-|
A---------4~~~~~--6~~~~~---------|
E--------------------------------|

G--------------------------------|
D-10~~~~-------------------------|
A---------8~~~~~--4~~~~~--6~~~~~-|
E--------------------------------|

G--------------------------------|
D-6~~~~~----------6~~~~~---------|
A---------4~~~~~----------4~~~~~-|
E--------------------------------|

Verse 1
G-------------------------------|
D-6---6---6---6-----------------|
A-----------------4---4---4---4-|
E-------------------------------| x2

G-------------------------------|
D-------------------------------|
A-1---1---1---1---3---3---3---3-|
E-------------------------------|

Interlude
G-------------------------------|
D-6---6---6---6---6---6---6---6-|
A-------------------------------|
E-------------------------------|

Verse 2
G-------------------------------|
D-6---6---6---6-----------------|
A-----------------4---4---4---4-|
E-------------------------------|

G-------------------------------|
D-------------------------------|
A-----------------4---4---4---4-|
E-4---4---4---4-----------------|

G-------------------------------|
D-------------------------------|
A-1---1---1---1---3---3---3---3-|
E-------------------------------|

Interlude
G-------------------------------|
D-6---6---6---6---6---6---6---6-|
A-------------------------------|
E-------------------------------|

G-------------------------------|
D-------------------------------|
A-6---6---6---6---8---8---8---8-|
E-------------------------------|

G-------------------------------|
D-------------------------------|
A-4---4---4---4---1---1---6---6-|
E-------------------------------|

G-/13~~~~~~~~~~~~~~~~~~~~~~~~~~-
D-------------------------------|
A-------------------------------|
E-------------------------------|

Verse 3
G-------------------------------|
D-------------------------------|
A-----------------4---4---4---4-|
E-4---4---4---4-----------------| x2

G-------------------------------|
D-------------------------------|
A-1---1---1---1---3---3---3---3-|
E-------------------------------|

Interlude
G-------------------------------|
D-------------------------------|
A-------------------------------|
E-4---4---4---4---4---4---4---4-|

Verse 4
G-------------------------------|
D-------------------------------|
A-----------------4---4---4---4-|
E-4---4---4---4-----------------| x2

G-------------------------------|
D-------------------------------|
A-1---1---1---1---3---3---3---3-|
E-------------------------------|

Interlude
G-------------------------------|
D-------------------------------|
A-------------------------------|
E-4---4---4---4---4---4---4---4-|

Bridge - Stop for a while then back in with
G---------------------------------|
D-6~~~~~~~~~~-----8-10~~~~~~~-----|
A---------------------------------|
E---------------------------------|

G---------------------------------|
D---------------------------------|
A-8-8-8-8-8-8-8-8-4-4-4-4-4-4-4-4-|
E---------------------------------|

G-----------------|
D-----------------|
A-6-6-6-6-6-6-6-6-|
E-----------------|

Ending
G-------------------------------|
D-------------------------------|
A-----------------4---4---4---4-|
E-4---4---4---4-----------------| x2

G-------------------------------|
D-------------------------------|
A-1---1---1---1---3---3---3---3-|
E-------------------------------|

G-------------------------------|
D-------------------------------|
A-------------------------------|
E-4---4---4---4---4---4---4---4-|
comments
We did not receive enough feedback on this tab! Please rate:
print report bad tab
1 2 3 4 5
I want to post or [tab]
guest
You may want to rate the tab now too:
select rating
Please do not post tabs as comments. Select "correction" instead!