Oops, an error
Loading. Please wait.

Dont See The Sorrow Bass Tab

241 views 1 this week
no commentswrite comment
1 2 3 4 5
please rate
add to favorites
launch autoscroll
font size
0
reset
guitar tuner
Autoscroll
slow
fast
+/-
esc
set tempo
stop
Help us to improve Ultimate-Guitar.com Take our survey!
×
Author
smythal 1,357
Band - Au Revoir Simone
Song - Don't See the Sorrow
Album - The Bird of Music
Track - 6
Bassist - Unknown

Intro/verse 1, Come in at 00:28
G-------------------------|
D-------------------------|
A-3~~~~~~~~~~~~~~~~~~~~~~-
E-------------------------

Verse 2
G-------------------------|
D-------------------------|
A-3~~~~~~~~~~-------3-2-3-|
E-------------------------|

G-------------------------|
D-------------------------|
A-------------------------|
E-5~~~~~~~~~--------5-3-5-|


G-------------------------|
D-------------------------|
A-3~~~~~~~~~~-------3-2-3-|
E-------------------------|

G-------------------------|
D-------------------------|
A-------------------------|
E-5~~~~~~~~-3~~~~~~~~~--3-|

G-------------------------|
D-------------------------|
A-------------------------|
E-1~~~~~~~~~--------------|

Chorus
G-------------------------|
D-------------------------|
A-3-----3-----3-----3-----|
E-------------------------|

G-------------------------|
D-------------------------|
A-------------------------|
E-5-----5-----5-----5-----|

G-------------------------|
D-------------------------|
A-3-----3-----3-----3-2-3-|
E-------------------------|

G-------------------------|
D-------------------------|
A-------------------------|
E-5-----5-----5-----5-----|

Verse 3
G-------------------------|
D-------------------------|
A-3-----3-----3-----3-2-3-|
E-------------------------|

G-------------------------|
D-------------------------|
A-------------------------|
E-5-----5-----5-----5-3-5-|

G-------------------------|
D-------------------------|
A-3-----3-----3-----3-2-3-|
E-------------------------|

G-------------------|
D-------------------|
A-------------------|
E-5-----5-----5-----|

G-------------------------|
D-------------------------|
A-------------------------|
E-3-----3-----3-----3-----|

G-------------------------|
D-------------------------|
A-------------------------|
E-1~~~~~~~~~~~~~~~~~~~~~~-

Bridge
G-------------------------|
D-------------------------|
A-3-----3-----3-----3-----|
E-------------------------|

G-------------------------|
D-7-----7-----------------|
A-------------5-----5-----|
E-------------------------|

G-------------------------|
D-------------------------|
A-7-----7-----7-----7-----|
E-------------------------|

G-------------------------|
D-7-----7-----9-----9-----|
A-------------------------|
E-------------7-----7-----|

Chorus x4
G-------------------------|
D-------------------------|
A-3-----3-----3-----3-2-3-|
E-------------------------|

G-------------------------|
D-------------------------|
A-------------------------|
E-5-----5-----5-----5-3-5-|

Ending
G-------------------------|
D----5-3-2-3------5-3-2-3-|
A-3------------3----------|
E-------------------------| x2

G-------------------------|
D-------------------------|
A----7-5-3-5------7-5-3-5-|
E-5------------5----------| x2

Repeat the above 3 more times, then:

G-------------------------|
D-------------------------|
A-3-----3-----3-----3-2-3-|
E-------------------------|

G-------------------------|
D-------------------------|
A-------------------------|
E-5-----5-----5-----5-3-5-|

Repeat. Fade out
Suggest correction new What's this?
You can suggest a correction to this tab. Community and Mods will review your correction and vote to approve or reject it.
comments
We did not receive enough feedback on this tab! Please rate:
print report bad tab
1 2 3 4 5
guest
You may want to rate the tab now too:
select rating
Please do not post tabs as comments. Select "correction" instead!