Oops, an error
Loading. Please wait.

Fallen Snow Bass Tab

586 views 1 this week
no commentswrite comment
1 2 3 4 5
please rate
add to favorites
launch autoscroll
font size
0
reset
guitar tuner
Autoscroll
slow
fast
+/-
esc
set tempo
stop
Help us to improve Ultimate-Guitar.com Take our survey!
×
Author
Band - Au Revoir Simone
Song - Fallen Snow
Album - The Bird of Music
Track - 3
Bassist - Unknown
www.aurevoirsimone.com

No Bass to start with

Come in at 0:38 with
G---------------------------------|
D-0242----------------------------|
A-----5-5-3-3-3-3-2-2-2-2-0-0-0-0-|
E---------------------------------| x1

G---------------------------------|
D---------------------------------|
A-5-5-5-5-3-3-3-3-2-2-2-2-0-0-0-0-|
E---------------------------------| x1

G---------------------------------|
D---------------------------------|
A-7-7-7-7-5-5-5-5-4-4-4-4-5-5-5-5-|
E---------------------------------| x2

G---------------------------------|
D-0242----------------------------|
A-----5-5-3-3-3-3-2-2-2-2-0-0-0-0-|
E---------------------------------| x1

G---------------------------------|
D---------------------------------|
A-7-7-7-7-5-5-5-5-4-4-4-4-5-5-5-5-|
E---------------------------------| x1

This is the ahhh-ahhhhh bit
G---------------------------------|
D---------------------------------|
A-5~~~~-----------5~~~~-----------|
E---------------------------------| x1

G---------------------------------|
D---------------------------------|
A-5~~~~---------------------------|
E-----------------6~~~~---------6-| x1

G---------------------------------|
D---------------------------------|
A---------------------------------|
E-8~~~~-----------8~~~~-----------| x1

"Cos nothing's worse..."
G---------------------------------|
D---------------------------------|
A-6~~~~-----------5~~~~-----------|
E---------------------------------| x1

G---------------------------------|
D---------------------------------|
A-4~~~~-----------3~~~~-----------|
E---------------------------------| x1

G---------------------------------|
D---------------------------------|
A-6-6-6-6-6-6-666-5-5-5-5-5-5-555-|
E---------------------------------| x1

G---------------------------------|
D---------------------------------|
A-4-4-4-4-4-4-444-3-3-3-3-3-3-333-|
E---------------------------------| x1

G---------------------------------|
D---------------------------------|
A-6-6-6-6-6-6-666-5-5-5-5-5-5-555-|
E---------------------------------| x1

G---------------------------------|
D---------------------------------|
A-4-4-4-4-4-4-444-3-3-3-3-3-3-333-|
E---------------------------------| x1

G---------------------------------|
D---------------------------------|
A-6-6-6-6-6-6-666-5-5-5-5-5-5-555-|
E---------------------------------| x1

G---------------------------------|
D---------------------------------|
A-4-4-4-4-4-4-444-3-3-3-3-3-3-333-|
E---------------------------------| x1

Instrumental bit
G---------------------------------|
D---------------------------------|
A-5~~~~---4~~~~---3~~~~---2~~~~---|
E---------------------------------| x2

G---------------------------------|
D---------------------------------|
A-1~~~~---2~~~~---3~~~~-----------|
E---------------------------------| x2

"Believe in the things that you know"
G---------------------------------|
D---------------------------------|
A-5~~~~---6~~~~---7~~~~-----------|
E---------------------------------| x1

G---------------------------------|
D---------------------------------|
A-8~~~~---9~~~~---10~~~-----------|
E---------------------------------| x1

G---------------------------------|
D---------------------------------|
A---------------------------------|
E-3~~~~~~~~-----------------------| x1

Ending
G---------------------------------|
D---------------------------------|
A-5-5-5-5-3-3-3-3-2-2-2-2-0-0-0-0-|
E---------------------------------| x1

G---------------------------------|
D-0242----------------------------|
A-----5-5-3-3-3-3-2-2-2-2-0-0-0-0-|
E---------------------------------| x1

G---------------------------------|
D---------------------------------|
A-5-5-5-5-3-3-3-3-2-2-2-2-0-0-0-0-|
E---------------------------------| x2

G---------------------------------|
D---------------------------------|
A-5~~~~---3~~~~---2~~~~---0~~~~---|
E---------------------------------| x2
Suggest correction
Give kudos to tab author, rate the tab!
1 2 3 4 5
comments
print report bad tab
guest
You may want to rate the tab now too:
select rating
Wanna post a correction for this tab? Suggest correction