Oops, an error
Loading. Please wait.

Night Majestic Bass Tab

212 views 1 this week
no commentswrite comment
1 2 3 4 5
3 more votes to show rating
add to favorites
launch autoscroll
font size
0
reset
guitar tuner
Autoscroll
slow
fast
+/-
esc
set tempo
stop
Help us to improve Ultimate-Guitar.com Take our survey!
×
Author
Intro slide
G-----------|
D-10////----|
A-----------|
D-----------|

Intro/Verse 1
G-----------------|
D-----------------|
A-1-1-1-1---------|
D---------1-1-1-1-| x2

G-----------------|
D-----------------|
A-1-1-1-1---------|
D---------5-5-5-5-|

G-----------------|
D-----------------|
A-----------------|
D-3-3-3-3-3-3-3-3-|

Repeat the above 3 more times

Interlude
G-----------------|
D-----------------|
A-----------------|
D-3-3-3-3-3-3-3-3-|

G---------------------------------|
D---------------------------------|
A-1111111133333335555555566666666-
D--------------------------------- x2

G------------------|
D------------------|
A-6666666666666666-
D------------------

Verse 2
Same as Verse 1

Interlude
Same as before

Bridge
G---------------------------------|
D-13~~~~~~-5~~~~~~~-8~~~~~~~------|
A---------------------------------|
D---------------------------------|

G----------------------------------|
D-13~~~~~~-5~~~~~~~-8~~~~~~~---6-5-|
A----------------------------------|
D----------------------------------|

G---------------------------------|
D---------------------------------|
A-6~~~~~~~------------------------|
D----------5~~~~~~~-8~~~~~~~------|

G---------------------------------|
D-------------------------8-5-8-5-|
A-6~~~~~~~------------------------|
D----------5~~~~~~~-8~~~~---------|

G---------------------------------|
D-------------------------8-5-8-5-|
A-66666666------------------------|
D---------5555555588888888--------|

G--------------------------15-12-15-12-|
D---------5555555588888888-------------|
A-66666666-----------------------------|
D--------------------------------------|

Ending
G-----------------|
D-----------------|
A-1-1-1-1---------|
D---------1-1-1-1-| x2

G-----------------|
D-----------------|
A-1-1-1-1---------|
D---------5-5-5-5-|

G-----------------|
D-----------------|
A-----------------|
D-3-3-3-3-3-3-3-3-|

G-----------------|
D-----------------|
A-1-1-1-1---------|
D---------1-1-1-1-| x2

G-----------------|
D-----------------|
A-1-1-1-1---------|
D---------5-5-5-5-|

G-----------------|
D-----------------|
A-----------------|
D-3-3-3-3-3-3-3-3-|

G-----------------|
D-----------------|
A-1---------------|
D-----------------|
Suggest correction
Give kudos to tab author, rate the tab!
1 2 3 4 5
comments
print report bad tab
guest
You may want to rate the tab now too:
select rating
Wanna post a correction for this tab? Suggest correction