Oops, an error
Loading. Please wait.

Sad Song Bass Tab

2,246 views 1 this week
no commentswrite comment
1 2 3 4 5
please rate
add to favorites
launch autoscroll
font size
0
reset
guitar tuner
Tab Pro tools
  • play this tab
  • loop segment
  • change instrument
  • show fretboard
  • metronome
×
Best way to learn
"Sad Song"
Autoscroll
slow
fast
+/-
esc
set tempo
stop
Contributor
Band - Au Revoir Simone
Song - Sad Song
Album - The Bird of Music
Track - 2
Bassist - Unknown

Tuning: Drop D, DADG

Intro
G--------------------------|
D--------------------------|
A-10~~~~-8~~~~~-12~~~-10-8-|
D--------------------------| x1

G--------------------------|
D--------------------------|
A-5~~~~~-7~~~~~-8~~~~~-----|
D--------------------------| x1

Verse 1
G--------------------------|
D--------------------------|
A--------------------------|
D-5~~~~~-3~~~~~-7~~~~~-5-3-| x1

G--------------------------|
D--------------------------|
A--------------------------|
D-0~~~~~-2~~~~~-3~~~~~-----| x1

G--------------------------|
D--------------------------|
A--------------------------|
D-5~~~~~-3~~~~~-7~~~~~-5-3-| x1

G--------------------------|
D--------------------------|
A--------------------------|
D-0~~~~~-2~~~~~-3~~~~~-----| x1

Chorus
G---------------------------------|
D---------------------------------|
A---------------------------------|
D-3-3-3-3-3-3-3-3-5-5-5-5-5-5-5-5-| x1

G---------------------------------|
D---------------------------------|
A---------------------------------|
D-7-7-7-7-7-7-7-7-7-7-7-7-7-7-7-7-| x1

Repeat Chorus x3

Verse 2: Same as Verse 1

Chorus x4

Bass rests a while, comes back at 2:56 with
G---------------|
D---------------|
A-3~~~~~--------|
D--------5---7--| x1

G---------------|
D---------------|
A-5~~~~~-5h7-5--|
D---------------| x1

G---------------|
D---------------|
A-3~~~~~-33--33-|
D---------------| x1

G-------------------------|
D-------------------------|
A-10~~~~-12~~~~-7-5-3~~~~-|
D-------------------------| x1

Ending - Play Intro x4
comments
We did not receive enough feedback on this tab! Please rate:
print report bad tab
1 2 3 4 5
I want to post or [tab]
guest
You may want to rate the tab now too:
select rating
Please do not post tabs as comments. Select "correction" instead!