Oops, an error
Loading. Please wait.

Donkey King Tab

4 views 1 this week
no commentswrite comment
1 2 3 4 5
3 more votes to show rating
add to favorites
launch autoscroll
font size
0
reset
how to read this tab
guitar tuner
Autoscroll
slow
fast
+/-
esc
set tempo
stop
Help us to improve Ultimate-Guitar.com Take our survey!
×
[Intro]

e|------------------------------------------------------------------------------------|
B|------------------------------------------------------------------------------------|
G|-------9-9-9-9------------5-5-5-5---------------------------------------------------|
D|7-7----9-9-9-9----5-5-----5-5-5-5---------------------------------------------------|
A|7-7----7-7-7-7----5-5-----3-3-3-3---------------------------------------------------|
E|5-5---------------3-3---------------------------------------------------------------|

e|------------------------------------------------------------------------------------|
B|------------------------------------------------------------------------------------|
G|-------9-9-9-9------------7-7-7-7---------------------------------------------------|
D|7-7----9-9-9-9----5-5-----7-7-7-7---------------------------------------------------|
A|7-7----7-7-7-7----5-5-----5-5-5-5---------------------------------------------------|
E|5-5---------------3-3---------------------------------------------------------------|

e|------------------------------------------------------------------------------------|
B|------------------------------------------------------------------------------------|
G|-------9-9-9-9------------5-5-5-5---------------------------------------------------|
D|7-7----9-9-9-9----5-5-----5-5-5-5---------------------------------------------------|
A|7-7----7-7-7-7----5-5-----3-3-3-3---------------------------------------------------|
E|5-5---------------3-3---------------------------------------------------------------|

e|----------------------------------|
B|----------------------------------|
G|5-5-------------------------------|
D|5-5---7-7-7-----5-5-5------9-9-9--|
A|3-3---7-7-7-----5-5-5------9-9-9--|
E|------5-5-5-----3-3-3------7-7-7--|(x2)
                                       

stay on 5 bar chord until verse starts


[Verse]

e|------------------------------------------------------------------------------------|
B|------------------------------------------------------------------------------------|
G|-------9-9-9-9------------5-5-5-5---------------------------------------------------|
D|7-7----9-9-9-9----5-5-----5-5-5-5---------------------------------------------------|
A|7-7----7-7-7-7----5-5-----3-3-3-3---------------------------------------------------|
E|5-5---------------3-3---------------------------------------------------------------|

e|------------------------------------------------------------------------------------|
B|------------------------------------------------------------------------------------|
G|-------9-9-9-9------------7-7-7-7---------------------------------------------------|
D|7-7----9-9-9-9----5-5-----7-7-7-7---------------------------------------------------|
A|7-7----7-7-7-7----5-5-----5-5-5-5---------------------------------------------------|
E|5-5---------------3-3---------------------------------------------------------------|

e|------------------------------------------------------------------------------------|
B|------------------------------------------------------------------------------------|
G|-------9-9-9-9------------5-5-5-5---------------------------------------------------|
D|7-7----9-9-9-9----5-5-----5-5-5-5---------------------------------------------------|
A|7-7----7-7-7-7----5-5-----3-3-3-3---------------------------------------------------|
E|5-5---------------3-3---------------------------------------------------------------|

e|----------------------------------|
B|----------------------------------|
G|5-5-------------------------------|
D|5-5---7-7-7-----5-5-5------9-9-9--|
A|3-3---7-7-7-----5-5-5------9-9-9--|
E|------5-5-5-----3-3-3------7-7-7--|(x4)
Suggest correction
Give kudos to tab author, rate the tab!
1 2 3 4 5
comments
print report bad tab
guest
You may want to rate the tab now too:
select rating
Wanna post a correction for this tab? Suggest correction