Oops, an error
Loading. Please wait.

Retour bass

by Audace
4 views 1 this week
no commentswrite comment
1 2 3 4 5
3 more votes to show rating
add to favorites
×
Save as Personal and add changes to this tab that will be seen only by you. Learn more ›
×
You can save this tab as Personal to edit and correct it or add notes. All changes will be seen only by you. Learn more »
launch autoscroll
font size
0
reset
guitar tuner
edit
Autoscroll
slow
fast
+/-
esc
set tempo
stop
About this tab version
Song translated from accordion to bass guitar, this song was featured on Felix Kjellberg's Channe: Pewdiepie. This song was featured when doing his vlog "Birdabo". Was this info helpful? Yes No
This song does not actually have a bass guitar, but I have listened to the accordion
and then translated to the bass, take time to get the timing and rythm down. (Bass Riff Begins At 4:07)

[Intro]
G|---------------------------------------|-------------------------------------------|
D|---------------------------------------|-------------------------------------------|
A|---------------------------------------|----------3----3---------------------------|  (x2)
E|--3----3---5----5---7----7---2--3-2----|--3----3------------7----7----2--3-2-------|
    PM  PM  PM   PM  PM   PM  PM PM PM    PM    PM  PM   PM PM   PM   PM PM PM 

G|--------------------------------------------|--------------------------------------------|
D|--------------------------------------------|--------------------------------------------|
A|--------------------------------------------|----------3----3----------------------------|  (x1)
E|-(12\)-3----3---5----5---7----7---2--3-2----|--3----3------------7----7----2--3-2--------|
         PM   PM  PM   PM  PM   PM  PM PMPM      PM   PM PM   PM   PM   PM   PM PM PM

[Main Riff]
G|---------------------------------------|---------------------------------------|
D|---------------------------------------|---------------------------------------|
A|---------------------------------------|----------3----3-----------------------|  x(--)
E|--3----3---5----5---7----7---2--3-2----|--3----3------------7----7----2--3-2---|
    PM   PM  PM   PM  PM   PM  PM PMPM      PM   PM PM   PM   PM   PM   PM PM PM


************************************

| PM  Palm mute

************************************

            
            
Suggest correction
Creating personal tab
Creating personal tab
You can edit any tab online and save it as your Personal.

You can edit, replace or remove any tab part or add personal notes – all changes will be seen only by you.

Personal tabs can be accessed anytime from any device, even offline.
Learn more »
Give kudos to tab author, rate the tab!
1 2 3 4 5
comments
print report bad tab
guest
You may want to rate the tab now too:
select rating
Wanna post a correction for this tab? Suggest correction