Oops, an error
Loading. Please wait.

Get Up Tab

105 views 1 this week
no commentswrite comment
1 2 3 4 5
please rate
add to favorites
launch autoscroll
font size
0
reset
how to read this tab
guitar tuner
Autoscroll
slow
fast
+/-
esc
set tempo
stop
Help us to improve Ultimate-Guitar.com Take our survey!
×
Author
Difficulty
Tuning
novice
D A D G B E
-------------------------------------------------------------------------------
                             GET UP - Audacious
-------------------------------------------------------------------------------
Tabbed by: makutoid
Email: makutoid_@hotmail.com

Tuning: Drop D

Intro/Main Riff
e|-------------------------|----------------------------|
B|-------------------------|----------------------------|
G|-------------------------|----------------------------|
D|-0-xx--------------------|-0-xx-----------------------|
A|-0-xx-3h5-p3-\-2p0-------|-0-xx-3h5-p3-\-2p0----------|
D|-0-xx---------------3--5-|-0-xx---------------3--4--5-|

Verse (mimicks the vocal melody)
e|----------------------------------------|-------------------------------|
B|----------------------------------------|-------------------------------|
G|----------------------------------------|-------------------------------|
D|----------------------------------------|-------------------------------|
A|-3-/-5---5--3-0--3-0---0-------0--------|-5-3-0--3-0---0-------0--------|
D|-------------------------5-3-5---5-3~~0-|----------------5-3-5---5-3~~0-|

e|------------------------------|-------------------------------|
B|------------------------------|-------------------------------|
G|------------------------------|-------------------------------|
D|------------------------------|-------------------------------|
A|-3-/-5---0---0-------0--------|-5-3-0--3-0---0-------0--------|
D|-----------5---5-3-5---5-3~~0-|----------------5-3-5---5-3~~0-|

PreChorus
     F             G      F/A     Bb
With everything inside me I will sing
        F       G 
I will shout it out

Chorus
(For the first few lines, play the intro riff)
Get up, we're here to praise him
Get up, we're here to lift our voices
               Bm          G
We're here to, praise him, praise him
D           E    F#m E  D
Come on and give him glory
Bm          G                  Intro Riff
Praise him, praise him, get up


The instrumental and bridge are all similar, just play the intro riff through them 
and your all set :)

Enjoy, this one's a good'un to spice up your set with a bit of funk ;)

Email if you've got any problems :)

************************************

| /   slide up
| \   slide down
| h   hammer-on
| p   pull-off
| ~   vibrato
| +   harmonic
| x   Mute note
| b   Bend
| pb  Pre-bend
| br  Bend release
| pbr Pre-bend release
| brb Bend release bend

************************************
Suggest correction
Give kudos to tab author, rate the tab!
1 2 3 4 5
comments
print report bad tab
guest
You may want to rate the tab now too:
select rating
Please do not post tabs as comments. Select "correction" instead!