Oops, an error
Loading. Please wait.

Spacious Place Tab

256 views 1 this week
1 commentread comment
1 2 3 4 5
please rate
add to favorites
launch autoscroll
font size
0
reset
how to read this tab
guitar tuner
Autoscroll
slow
fast
+/-
esc
set tempo
stop
Help us to improve Ultimate-Guitar.com Take our survey!
×
Author
Difficulty
novice
                            SPACIOUS PLACE - Audacious 

Tabbed by: makutoid
Email: makutoid_@hotmail.com
Tuning: Standard
Intro
   G                            D
e|-------------------------------------|
B|-------------------------------------|
G|-12--14-b16------------14b16r14------|
D|-------------14~---12----------------| x4?
A|-------------------------------------|
E|-------------------------------------|
Verse
G                         D
You hold my world in your hands
G                         D       Em
Your love is greater than I understand
     C     G      Em
Whatever I face I know
          D
You go before me
G                        D
You hear my voice when I call
G                           D          Em
Reach down from heaven you capture my soul
    C      G       Em
Whatever I face I know
          D
You go before me

Chorus
    G          
You opened the eyes of my heart
     Em
The horizon reaches so far
        D
Now you brought me out to this spacious place
       C    Em D
You delight in me
          G 
You’ve uncovered the depths of your heart
        Em
And the wonder of all that you are
       D
Now I see how high, how wide, how deep
        C
Is your love for me


Solo
e|-----------------------------------|----------------------------------------------|
B|-----------------------------------|----------------------------------------------|
G|-12--14---b16------------14b16r14~-|12--14--b16------------14b16r14-----14b16-16--|
D|---------------14~---12------------|-------------14~---12------------12-----------|
A|-----------------------------------|----------------------------------------------|
E|-----------------------------------|----------------------------------------------|

e|-----------------------------------|----------------------------------------------|
B|----15b17--17--17r15~--15b7r15-12--|-12--13--12-12--------------------------------|
G|-12--------------------------------|-----------------14~~--12-14-11--9--11-7------|
D|-----------------------------------|----------------------------------------------|
A|-----------------------------------|----------------------------------------------|
E|-----------------------------------|----------------------------------------------|

Another great way to end the solo if you wanna end it on a high is with a scale shread...

(ending of 13b15 corresponds with "you" of "you opened the eyes of my heart")
e|----------------------------------------------------------------------------------|
B|---------------------12--12p13b15~~-----------------------------------------------|
G|------12--12h14p12h14--14---------------------------------------------------------|
D|-12h14--14------------------------------------------------------------------------|
A|----------------------------------------------------------------------------------|
E|----------------------------------------------------------------------------------|


As with every Audacious song, it's pretty easy! The lead intro is really nice if 
you can pull of the bends, but you've gotta have a pretty good ear to get it 
accurate otherwise it sounds awful. If you're not confident with the bends then 
just play the notes normally but it's definately worth a try. For the solo, again 
you wanna be careful with the bends. Personally my style is to use bends a lot so 
that's the way I worked out to play it but do whatever suits you best really :)

Enjoy! Email me if you have any questions :) makutoid_@hotmail.com

************************************

| /   slide up
| \   slide down
| h   hammer-on
| p   pull-off
| ~   vibrato
| +   harmonic
| x   Mute note
| b   Bend
| pb  Pre-bend
| br  Bend release
| pbr Pre-bend release
| brb Bend release bend

************************************
Suggest correction
Give kudos to tab author, rate the tab!
1 2 3 4 5
comments
print report bad tab
1 comment total.
0 reply
makutoid 1,054 wrote on January 30 2011, 05:28 pm

Middle of the chorus, "you delight in me" the chord change is actually C, Em, D NOT C, G, D

guest
You may want to rate the tab now too:
select rating
Please do not post tabs as comments. Select "correction" instead!