Oops, an error
Loading. Please wait.

This Is Life Chords

76 views 1 this week
no commentswrite comment
1 2 3 4 5
please rate
add to favorites
launch autoscroll
font size
0
reset
transpose
0
reset
display chords
guitar tuner
Autoscroll
slow
fast
+/-
esc
set tempo
stop
Help us to improve Ultimate-Guitar.com Take our survey!
×
Author
Difficulty
novice
-------------------------------------------------------------------------------
                           THIS IS LIFE - Audacious
-------------------------------------------------------------------------------
Tabbed by: makutoid
Email: makutoid_@hotmail.com

Tuning: Standard

Intro
   B           D  E      A     B   B        D  E      A     B
e|-------------------------------|----------------------------|
B|-------------------------------|----------------------------|
G|-------------7--9-9-9----------|----------7--9-9-9----------|
D|-9--9-9-9-9--7--9-9-9--7-7-7-9-|-9-9-9-9--7--9-9-9--7-7-7-9-|
A|-9--9-9-9-9--5--7-7-7--7-7-7-9-|-9-9-9-9--5--7-7-7--7-7-7-9-|
E|-7--7-7-7-7------------5-5-5-7-|-7-7-7-7------------5-5-5-7-|


Verse 1
A B                  (A B)
   New life in jesus
                F#      G#m
He paid for me (woah oh)
I am forgiven
B      E
By the cross that stands for eternity

Verse 2
Light in the darkness
For the world to see (woah oh)
I'm burning brightly
You cannot tame what he's done in me
C#m                  E
   What he's done in me
Verse Riff (the A B part)
   A     B
e|---------|
B|---------|
G|---------|
D|-7-7-7-9-|
A|-7-7-7-9-|
E|-5-5-5-7-|

Chorus
        G#m           E
This is life, to the full
    B               F#          G#m
All fear is gone in perfect love
    E               B    F# (riff)
You came and set me free
        G#m    E
Now the old is gone
    B               F#         G#m
The new has come in you my God
        E              B     F#
In your freedom I will live

Chorus riff
e|-----------|
B|-----------|
G|-11-9----9-|
D|------12---|
A|-----------|
E|-----------|

Bridge (palm mute)
        G#m          B
This is life, to the full
        E               C#m
This is grace, for everyone
        G#m                    F#
This is love, and I can't stay silent anymore
B       E                         C#m
This is God, in my life, and I've got to tell the world

Tag
        G#m          (G#m)
This is life, this is life
        B           (B)
This is life to the full
        E            (E)
This is God, this is God
        C#m               (C#m)
This is what He's done for us


Love this song, its got a great riff and it's just good jumpy fun :)

Email if there's any problems, happy playing :)

************************************

| /   slide up
| \   slide down
| h   hammer-on
| p   pull-off
| ~   vibrato
| +   harmonic
| x   Mute note
| b   Bend
| pb  Pre-bend
| br  Bend release
| pbr Pre-bend release
| brb Bend release bend

************************************
Suggest correction
Give kudos to tab author, rate the tab!
1 2 3 4 5
comments
print report bad tab
guest
You may want to rate the tab now too:
select rating
Wanna post a correction for this tab? Suggest correction