Oops, an error
Loading. Please wait.

Tribe Called Praise Tab

251 views 1 this week
no commentswrite comment
1 2 3 4 5
please rate
add to favorites
launch autoscroll
font size
0
reset
how to read this tab
guitar tuner
Tab Pro tools
  • play this tab
  • loop segment
  • change instrument
  • show fretboard
  • metronome
×
Best way to learn
"Tribe Called Praise"
Autoscroll
slow
fast
+/-
esc
set tempo
stop
Contributor
Difficulty
Tuning
novice
D A D G B E
-------------------------------------------------------------------------------
                           TRIBE CALLED PRAISE - Audacious
-------------------------------------------------------------------------------
Tabbed by: makutoid
Email: makutoid_@hotmail.com

Tuning: Drop D

Intro/Main Riff
   D                F  G           D               F  G         F F F  D
e|-----------------------------------|-------------------------------------|
B|-----------------------------------|-------------------------------------|
G|-----------------------------------|-------------------------------------|
D|-0---------------------------------|-0------------------------3-3-3--0---|
A|-0--3p2p0--------------3p2p0-------|-0--3p2p0-----------------3-3-3--0---|
D|-0---------5-3--0-3h5---------3--5-|-0---------5-3--0-3h5-----3-3-3--0---|

Verse
   D       D F       F G       G Eb  D       D F       F G       G Eb
e|---------------------------------|---------------------------------|
B|---------------------------------|---------------------------------|
G|---------------------------------|---------------------------------|
D|-0-------0-3-------3-5-------5-1-|-0-------0-3-------3-5-------5-1-|
A|-0-------0-3-------3-5-------5-1-|-0-------0-3-------3-5-------5-1-|
D|-0-------0-3-------3-5-------5-1-|-0-------0-3-------3-5-------5-1-|

PreChorus
   Bb             G                  Bb             G
e|------------------------------|--|---------------------------------------|
B|------------------------------|--|---------------------------------------|
G|------------------------------|--|---------------------------------------|
D|-----8b-----8b------5b-----5b-|x3|-----8b-----8b-------------------------|
A|------------------------------|--|-------------------10-10-10-10-10-10-10|
D|-8-8----8-8-----5-5----5-5----|--|-8-8----8-8----------------------------|

Chorus (main riff)
   D                F  G           D               F  G         F F F  D
e|-----------------------------------|-------------------------------------|
B|-----------------------------------|-------------------------------------|
G|-----------------------------------|-------------------------------------|
D|-0---------------------------------|-0------------------------3-3-3--0---|
A|-0--3p2p0--------------3p2p0-------|-0--3p2p0-----------------3-3-3--0---|
D|-0---------5-3--0-3h5---------3--5-|-0---------5-3--0-3h5-----3-3-3--0---|

Bridge/Outro (sounds kinda cool with a wah pedal, try it out)
   Bb       C        D        F
e|---------|--------|--------|--------|
B|---------|--------|--------|66666666|
G|-33333333|55555555|77777777|55555555|
D|-33333333|55555555|77777777|33333333|
A|-11111111|33333333|55555555|--------|
D|---------|--------|--------|--------|

As with most christian music, this is pretty easy. Honestly, the rhythm guitarist has 
hardest part cause the intro is a weird rhythm but the rest should be ok. The youth always 
this one so it's worth a shot even if you don't like it, I dont :P

Email me if any problems :)

************************************

| /   slide up
| \   slide down
| h   hammer-on
| p   pull-off
| ~   vibrato
| +   harmonic
| x   Mute note
| b   Bend
| pb  Pre-bend
| br  Bend release
| pbr Pre-bend release
| brb Bend release bend

************************************
comments
We did not receive enough feedback on this tab! Please rate:
print report bad tab
1 2 3 4 5
I want to post or [tab]
guest
You may want to rate the tab now too:
select rating
Please do not post tabs as comments. Select "correction" instead!