Oops, an error
Loading. Please wait.

Leaving You chords

version 2
version 2

Whole song

by Audien
221 views 1 this week
no commentswrite comment
1 2 3 4 5
3 more votes to show rating
add to favorites
×
Save as Personal and add changes to this tab that will be seen only by you. Learn more ›
×
You can save this tab as Personal to edit and correct it or add notes. All changes will be seen only by you. Learn more »
launch autoscroll
font size
0
reset
transpose
0
reset
simplify chords
display chords
guitar tuner
edit
Autoscroll
slow
fast
+/-
esc
set tempo
stop
Strumming
There is no strumming pattern for this song yet. and get +5 IQ
-------------------------------------------------------------------------------
                             LEAVING YOU - Audien
-------------------------------------------------------------------------------
Tabbed by: Pethabuttah

Tuning: Standard

Capo 5

Intro: C Em D

C                  Em
Oh looky here I am burning again

D
Thought it was real but your love it was only pretend

C                  Em
Oh looky here I am walking away

D
I turn around if you beg, if you beg me to stay

C                          Em
This time I don’t think so, I had enough of your romance reflow

D
Heart breaker with an ego, you were doing some things that could've been illegal

C                                 Em
Makes sense out of nothing at all, you were pretty much evil

D
But I've got more to say

C                             Em          G
No I never, never met nobody, body like you

D
That ain’t no compliment, that’s the truth

       Am
You’re nothing but a cold heart covered in gold— 
that’s why, that’s why, that's why, that's why I’m leaving you

      C        Em7 Gmaj7 Am      Em7   D
e|----0--0-----x----2----0--------3----2-------------------------------------|
B|----1--1-----3----0----1--------3----3-------------------------------------|
G|----0--0-----0----0----2--------0----2-------------------------------------|
D|----2--2-----2----0----2--------2----0-------------------------------------|
A|----3--3-----2----2----0--------2----0-------------------------------------|
E|----0--0-----0----3----0--------0----x-------------------------------------|

      C         Em7  Gmaj7 Am      Em7    D
e|----0--0--0-0--x----2----0--------3--3--2---2------------------------------|
B|----1--1--1-1--3----0----1--------3--3--3---3------------------------------|
G|----0--0--0-0--0----0----2--------0--0--2---2------------------------------|
D|----2--2--2-2--2----0----2--------2--2--0---0------------------------------|
A|----3--3--3-3--2----2----0--------2--2--0---0------------------------------|
E|----0--0--1-1--0----3----0--------0--0--x---x------------------------------|

      C        Em7 Gmaj7 Am      Em7   D
e|----0--0-----x----2----0--------3----2-------------------------------------|
B|----1--1-----3----0----1--------3----3-------------------------------------|
G|----0--0-----0----0----2--------0----2-------------------------------------|
D|----2--2-----2----0----2--------2----0-------------------------------------|
A|----3--3-----2----2----0--------2----0-------------------------------------|
E|----0--0-----0----3----0--------0----x-------------------------------------|

      C        Em7 Gmaj7 Am      Em7   
e|----0--0-----x----2----0--------3------------------------------------------|
B|----1--1-----3----0----1--------3------------------------------------------|
G|----0--0-----0----0----2--------0------------------------------------------|
D|----2--2-----2----0----2--------2------------------------------------------|
A|----3--3-----2----2----0--------2------------------------------------------|
E|----0--0-----0----3----0--------0------------------------------------------|

C                  Em
Oh looky here I am burning again

D
Thought it was real but your love it was only pretend

C                  Em
Oh looky here I am walking away

D
I turn around if you beg, if you beg me to stay

C                          Em
This time I don’t think so, I had enough of your romance reflow

D
Heart breaker with an ego, you were doing some things that could've been illegal

C                                 Em
Makes sense out of nothing at all, you were pretty much evil

D
But I've got more to say

C                             Em          G
No I never, never met nobody, body like you

D
That ain’t no compliment, that’s the truth

       C                        G
You’re nothing but a cold heart covered in gold— 
       Am
that’s why (10x) that's why I’m leaving you

      C        Em7 Gmaj7 Am      Em7   D
e|----0--0-----x----2----0--------3----2-------------------------------------|
B|----1--1-----3----0----1--------3----3-------------------------------------|
G|----0--0-----0----0----2--------0----2-------------------------------------|
D|----2--2-----2----0----2--------2----0-------------------------------------|
A|----3--3-----2----2----0--------2----0-------------------------------------|
E|----0--0-----0----3----0--------0----x-------------------------------------|

      C         Em7  Gmaj7 Am      Em7    D
e|----0--0--0-0--x----2----0--------3--3--2---2------------------------------|
B|----1--1--1-1--3----0----1--------3--3--3---3------------------------------|
G|----0--0--0-0--0----0----2--------0--0--2---2------------------------------|
D|----2--2--2-2--2----0----2--------2--2--0---0------------------------------|
A|----3--3--3-3--2----2----0--------2--2--0---0------------------------------|
E|----0--0--1-1--0----3----0--------0--0--x---x------------------------------|

      C        Em7 Gmaj7 Am      Em7   D
e|----0--0-----x----2----0--------3----2-------------------------------------|
B|----1--1-----3----0----1--------3----3-------------------------------------|
G|----0--0-----0----0----2--------0----2-------------------------------------|
D|----2--2-----2----0----2--------2----0-------------------------------------|
A|----3--3-----2----2----0--------2----0-------------------------------------|
E|----0--0-----0----3----0--------0----x-------------------------------------|

      C        Em7 Gmaj7 Am      Em7   
e|----0--0-----x----2----0--------3------------------------------------------|
B|----1--1-----3----0----1--------3------------------------------------------|
G|----0--0-----0----0----2--------0------------------------------------------|
D|----2--2-----2----0----2--------2------------------------------------------|
A|----3--3-----2----2----0--------2------------------------------------------|
E|----0--0-----0----3----0--------0------------------------------------------|


I'm leaving you...

      C        Em7 Gmaj7 Am      Em7   D
e|----0--0-----x----2----0--------3----2-------------------------------------|
B|----1--1-----3----0----1--------3----3-------------------------------------|
G|----0--0-----0----0----2--------0----2-------------------------------------|
D|----2--2-----2----0----2--------2----0-------------------------------------|
A|----3--3-----2----2----0--------2----0-------------------------------------|
E|----0--0-----0----3----0--------0----x-------------------------------------|

   
      C        Em7 Gmaj7 Am      Em7   
e|----0-------x----2----0--------3------------------------------------------|
B|----1-------3----0----1--------3------------------------------------------|
G|----0-------0----0----2--------0------------------------------------------|
D|----2-------2----0----2--------2------------------------------------------|
A|----3-------2----2----0--------2------------------------------------------|
E|----0-------0----3----0--------0------------------------------------------|

C                             Em          G
No I never, never met nobody, body like you

D
That ain’t no compliment, that’s the truth

       Am
You’re nothing but a cold heart covered in gold— 
that’s why, that’s why, that's why, that's why I’m leaving you

C                             Em          G
No I never, never met nobody, body like you

D
That ain’t no compliment, that’s the truth

       Am
You’re nothing but a cold heart covered in gold— 
that’s why, that’s why, that's why, that's why I’m leaving you

************************************

| /   slide up
| \   slide down
| h   hammer-on
| p   pull-off
| ~   vibrato
| +   harmonic
| x   Mute note
| b   Bend
| pb  Pre-bend
| br  Bend release
| pbr Pre-bend release
| brb Bend release bend

************************************

            
            
Suggest correction
Creating personal tab
Creating personal tab
You can edit any tab online and save it as your Personal.

You can edit, replace or remove any tab part or add personal notes – all changes will be seen only by you.

Personal tabs can be accessed anytime from any device, even offline.
Learn more »
Give kudos to tab author, rate the tab!
1 2 3 4 5
comments
print report bad tab
guest
You may want to rate the tab now too:
select rating
Wanna post a correction for this tab? Suggest correction