Oops, an error
Loading. Please wait.

Raviole Tab

1,026 views 1 this week
no commentswrite comment
1 2 3 4 5
x 3
add to favorites
launch autoscroll
font size
0
reset
how to read this tab
guitar tuner
Autoscroll
slow
fast
+/-
esc
set tempo
stop
Help us to improve Ultimate-Guitar.com Take our survey!
×
AUDIENCE - Raviole


E-------------5---------------------5---|
B------5h6p5------5h6p5-----5h6p5-------|
G--7--------------------7---------------|
D--0-0------0---0-------0-0-------0---0-|
A---------------------------------------|
E---------------------------------------|

----------------------------------5----------|
-------------8------------5h6p5-------5h6p5--|
-7---6---9-------6----7----------------------|
----------------------0-0-------0---0--------|
---0---0---0---0---0-------------------------|
---------------------------------------------|


E-------------5---------------------5---|
B------5h6p5------5h6p5-----5h6p5-------|
G--7--------------------7---------------|
D--0-0------0---0-------0-0-------0---0-|
A---------------------------------------|
E---------------------------------------|

----------------------------------5----------|
-------------8------------5h6p5--------------|
-7---6---9-------6----7---------------7------|
----------------------0-0-------0---0---0-0--|
---0---0---0---0---0-------------------------|
---------------------------------------------|

E---10-10--10--------8---8---6---6---|
B---------------10-------------------|
G----------------------0---0---0---0-|
D--------0----0----0-----------------|
A------------------------------------|
E------------------------------------|

---------8-----8------8-------------------|
-----8-----8-----11--------10---10--------|
-9-9---9-----9------9---9-----9----9------|
------------------------------------------|
------------------------------------------|
------------------------------------------|


E-----------10----10--------------9--------9---|
B--10s11-11----11----11---11---10---10-8-----8-|
G-----------------------9----9-----------9-----|
D----------------------------------------------|
A----------------------------------------------|
E----------------------------------------------|

-------5-5----------------------|
-----6-----8-6-5---6-5----------|
---7-------------7-----6-7------|
-0-----------------------0------|
---------0----------------------|
--------------------------------|


E--6--6-6---5---3--3-3--2-----6--6-6---5---3--3-3---|
B--8--8-8---7---5--5-5--3-----8--8-8---7---5--5-5---|
G--7--7-7---7---4--4-4--2-----7--7-7---7---4--4-4---|
D---------------------------------------------------|
A---------------------------------------------------|
E---------------------------------------------------|


   1.  2.  3.  4.  5.  6.  7.

E--1---1---1---1---1---1---0----------|
B--3---3---3---3---3---3---3----------|
G--2---2---2---2---2---2---2----------|   2x
D--0----------------------------------|
A------3---1---0-------0---0----------|
E------------------3------------------|

E--3---3---3---3---3---3---3--0--1--1--1--0--|
B--3---3---3---3---3---3---3--0--3--3--3--3--|
G--0-----------------------------------------|
D------3---2---------------------0-----------|
A--------------1---0----------------1--0--0--|
E----------------------1---0--0--------------|
Suggest correction
Give kudos to tab author, rate the tab!
1 2 3 4 5
comments
print report bad tab
guest
You may want to rate the tab now too:
select rating
Wanna post a correction for this tab? Suggest correction