Oops, an error
Loading. Please wait.

Chevette Tab

1,310 views 1 this week
no commentswrite comment
1 2 3 4 5
please rate
add to favorites
launch autoscroll
font size
0
reset
how to read this tab
guitar tuner
Autoscroll
slow
fast
+/-
esc
set tempo
stop
Help us to improve Ultimate-Guitar.com Take our survey!
×
Author
Difficulty
intermediate
Song: Chevette
Artist: Audio Adrenaline
Album: Some Kind Of Zombie

Tuning for Guitar 1: Standard - EADGBe
Tuning for Guitar 2: Standard - EADGBe

This is a great song, and the other two versions of this
tab are good, but this one is more complete

Intro:
The song starts out with a few measures of just drums and bass then
guitar 1 ocmes in with a single strum on a barred D chord then the 
second time guitar 2 joins in with the continuous strumming
if you listen to the song its easier to understand.
Guitar 1
e|-5------------5--------------5--------------5--------------5----||
B|-6------------6--------------6--------------6--------------6----||
G|-7------------7--------------7--------------7--------------7----||
D|-7------------7--------------7--------------7--------------7----||
A|-5------------5--------------5--------------5--------------5----||
E|-x------------x--------------x--------------x--------------x----||
Guitar 2                                                          ||
e|--------------2--2-2-2-2-2---2--2-2-2-2-2---2--2-2-2-2-2---2----||
B|--------------3--3-3-3-3-3---3--3-3-3-3-3---3--3-3-3-3-3---3----||
G|--------------2--2-2-0-0-0h2-2--2-2-0-0-0h2-2--2-2-0-0-0h2-2----||
D|----------------------------------------------------------------||
A|----------------------------------------------------------------||
E|----------------------------------------------------------------||

Interlude(Solo)
There are several ways to play this solo but i think that this
is the best way to play it, first time through its just guitar 1,
then guitar two joins in to harmonize.
Guitar 1
e|------------------------------------------------||
B|-------------------------------(solo ends on)---||
G|-11b-9-11-7-11b-9-11-5*---(x4)-------9-7--------||
D|------------------------------------------------||
A|---(*that is one time through)------------------||
E|------------------------------------------------||
Guitar 2                                          ||
e|------------------------------------------------||
B|-------------------------------(solo ends on)---||
G|-12b-10-12-7-12b-10-12-3*---(x3)-----10-7-------||
D|------------------------------------------------||
A|---(*that is one time through)------------------||
E|------------------------------------------------||

During the verses guitar 1 arpagiates with these chords
E|-5---------3--------------------||
B|-7----6----3--------------------||
G|-7----7----4--------------------||
D|------7----5--------------------||
A|------8----5--------------------||
E|-----------3--------------------||
Guitar 2- while guitar 2 plays this
E|---2-2-2-2-2---1-1-1-1-1*---3--3--3--3--3**-----||
B|---3-3-3-3-3---3-3-3-3-3----3--3--3--3--3-------||
G|---2-2-2-0-0h2-2-2-2-0-0h2--5--5--5--5--5-------||
D|---------------3-3-3-3-3----4--4--4--4--4-------||
A|---------------------------(4)(4)(4)(4)(4)------||
E|---------------------------(3)(3)(3)(3)(3)------||
*you can leave off the one and its easier to play, it just
doesn't sound as good
**this is a barred G, but you dont hit the E and A strings

(Pre-Chorus)Chorus:
Guitars Play The Same Part Here...
Guitars 1+2
E|-----------------------------||
B|-----------------------------||
G|-----------------------------||
D|-3------5------3------5------||
A|-3-(x8)-5-(x8)-3-(x8)-5-(x8)-||
E|-1------3------1------3------||

Bridge:
Here I'm just going to type out the bar chords played by guitar 2
because i dont have the time to figure out the higher part played
by guitar 1 right now
Guitar 2
e|------------------------------------------------||
B|------------------------------------------------||
G|------------------------------------------------||
D|-3------5------10------12-----------------------||
A|-3-(x8)-5-(x8)-10-(x8)-12-(x8)---((all x2))-----||
E|-1------3------8-------10-----------------------||

There is some more solo stuff after all of that, then the outro gets 
really noisy, i think that there might be some more stuff in there
that i missed, but overall i think this is good for just messin around with

If you see anything that you think needs to be changed please feel free to
leave a comment if you can figure out the outro part that would be great too.

Suggest correction
What's this?
You can suggest a correction to this tab. Community and Mods will review your correction and vote to approve or reject it.
comments
We did not receive enough feedback on this tab! Please rate:
print report bad tab
1 2 3 4 5
guest
You may want to rate the tab now too:
select rating
Please do not post tabs as comments. Select "correction" instead!