Oops, an error
Loading. Please wait.

Free Ride Tab

6,281 views 9 this week
3 commentsread comments
1 2 3 4 5
x 3
add to favorites
launch autoscroll
font size
0
reset
how to read this tab
guitar tuner
Autoscroll
slow
fast
+/-
esc
set tempo
stop
Author/Artist: Audio Adrenaline
Title: Free Ride
Album: Bloom

------------------------------------------------------------------------------|
---------10---10--8--7---------------------------8--8--7--5-------------------|
---------9----9---7--7---------------------------7--7--7--6-------------------|
-----7-------------------x-x-x-x-x-x--------7-----------------x-x-x-x-x-x-----|
-7h9---------------------x-x-x-x-x-x---7h9--------------------x-x-x-x-x-x-----|
-------------------------x-x-x-x-x-x--------------------------x-x-x-x-x-x-----|
 verse:

------------------------------------------------------------------------------|
------------------------------------------------------------------------------|
------------------------------------------------------------------------------|
-7-5-----------------------7-7p5----------------------------------------------|
-5-3-7-7------0-4-x-5-x-7--------7--------------------------------------------|
-----5-5--0h2---2-x-3-x-5-----------------------------------------------------|
 The mountain are high the valleys are low.

------------------------------------------------------------------------------|
------------------------------------------------------------------------------|
------------------------------------------------------------------------------|
-7-5-----------------------7-7p5----------------------------------------------|
-5-3-7-7-----0-4-x-5-x-7---------7--------------------------------------------|
-----5-5-0h2---2-x-3-x-5------------------------------------------------------|
 You are confuse by which way to go.

------------------------------------------------------------------------------|
------------------------------------------------------------------------------|
------------------------------------------------------------------------------|
-7-5-----------------------7-7p5----------------------------------------------|
-5-3-7-7-----0-4-x-5-x-7---------7--------------------------------------------|
-----5-5-0h2---2-x-3-x-5------------------------------------------------------|
 I know someone to give you a hand

------------------------------------------------------------------------------|
------------------------------------------------------------------------------|
------------------------------------------------------------------------------|
-7-5--------------------------------------------------------------------------|
-5-3-7-7-----0-4-x-5-x-7-7\---------------------------------------------------|
-----5-5-0h2---2-x-3-x-5-5\---------------------------------------------------|
 Lead you into the promised land

-----------------------------|------------------------------------------------|
-----------------------------|------------------------------------------------|
-----------------------------|------------------2-4p2-------------------------|
------------------2-4p2------|-----------7-7--4-------4-----------------------|
-4-4--5-5--7-7--4-------4----|-4-4--5-5--5-5----------------------------------|
-2-2--3-3--5-5---------------|-2-2--3-3---------------------------------------|
 Come on and take a free ride! Come on and get by my side

------------------------------------------------------------------------------|
------------------------------------------------------------------------------|
------------------------------------------------------------------------------|
-----------7-7----------------------------------------------------------------|
-4-4--5-5--5-5----------------------------------------------------------------|
-2-2--3-3---------------------------------------------------------------------|
 Come on and take a free ride!

------------------------------------------------------------------------------|
-------10-10--8-7-------------------8-8-7-5-----------------------------------|
-------9---9--7-7-------------------7-7-7-6-----------------------------------|
-----7------------x-x-x-x-x-x-----7---------x-x-x-x-x-x-----------------------|
-7h9--------------x-x-x-x-x-x-7h9-----------x-x-x-x-x-x-----------------------|
------------------x-x-x-x-x-x---------------x-x-x-x-x-x-----------------------|
 Repeat 4 times

------------------------------------------------------------------------------|
------------------------------------------------------------------------------|
------------------------------------------------------------------------------|
-7-5---------------------7-7p5------------------------------------------------|
-5-3-7-7-----0-4-x-5-x-7-------7----------------------------------------------|
-----5-5-0h2---2-x-3-x-5------------------------------------------------------|
 All over the country i've seen it the same.

------------------------------------------------------------------------------|
------------------------------------------------------------------------------|
------------------------------------------------------------------------------|
-7-5---------------------7-7p5------------------------------------------------|
-5-3-7-7-----0-4-x-5-x-7-------7----------------------------------------------|
-----5-5-0h2---2-x-3-x-5------------------------------------------------------|
 Nobody's winning at this type of game

------------------------------------------------------------------------------|
------------------------------------------------------------------------------|
------------------------------------------------------------------------------|
-7-5---------------------7-7p5------------------------------------------------|
-5-3-7-7-----0-4-x-5-x-7-------7----------------------------------------------|
-----5-5-0h2---2-x-3-x-5------------------------------------------------------|
 they got to do better they got to take aim

------------------------------------------------------------------------------|
------------------------------------------------------------------------------|
------------------------------------------------------------------------------|
-7-5---------------------7-7p5------------------------------------------------|
-5-3-7-7-----0-4-x-5-x-7-------7----------------------------------------------|
-----5-5-0h2---2-x-3-x-5------------------------------------------------------|
 all of the answers will come from within

------------------------------|-----------------------------------------------|
------------------------------|-----------------------------------------------|
------------------------------|---------------2-4p2---------------------------|
---------------2-4p2----------|---------7-7-4-------4-------------------------|
-4-4-5-5-7-7-4-------4--------|-4-4-5-5-5-5-----------------------------------|
-2-2-3-3-5-5------------------|-2-2-3-3---------------------------------------|
 Come on and take a free ride   come on and get by my side

------------------------------------------------------------------------------|
------------------------------------------------------------------------------|
------------------------------------------------------------------------------|
---------7-7\-----------------------------------------------------------------|
-4-4-5-5-5-5\-----------------------------------------------------------------|
-2-2-3-3----------------------------------------------------------------------|
 come on and take a free ride

------------------------------------------------------------------------------|
------------------------------------------------------------------------------|
------------------------------------------------------------------------------|
------------------------------------------------------------------------------|
------------------------------------------------------------------------------|
------------------------------------------------------------------------------|
  play intro riff 2X verse riff 4X  Chorus

--------------------|---------------------------------------------------------|
--------------------|---------------------------------------------------------|
--------------------|---------------------------------------------------------|
-4-5-7-4-5-5-6-7-5-7|---------------------------------------------------------|
--------------------|---------------------------------------------------------|
-2-3-5-2-3-3-4-5-3-5|---------------------------------------------------------|
 play this 8X's

------------------------------------------------------------------------------|
------------------------------------------------------------------------------|
----------------------------------------------2-4p2---------------------------|
---------------2-4p2--------------------7-7-4-------4-------------------------|
-4-4-5-5-7-7-4-------4----------4-4-5-5-5-5-----------------------------------|
-2-2-3-3-5-5--------------------2-2-3-3---------------------------------------|
 Come on and take a free ride   Come on and take a free ride (4x)

------------------------------------------------------------------------------|
------------------------------------------------------------------------------|
------------------------------------------------------------------------------|
------------------------------------------------------------------------------|
-7\---------------------------------------------------------------------------|
-5\---------------------------------------------------------------------------|
Suggest correction
Give kudos to tab author, rate the tab!
1 2 3 4 5
comments
print report bad tab
3 comments total.
0 reply
farcry 90 Aug 29, 2004 08:00 PM

Audio Adrenaline??? Edgar Winter man.

0 reply
Elmo! 10 Dec 04, 2008 07:42 AM

Audio Adrenaline also did a version of this song fairly recently.

0 reply
Jesus freak 2 20 Sep 19, 2011 11:46 AM

After the second chorus you play this,

e |--------------------------------------------------------|
B |--------------------------------------------------------|
G |-5-5-4-4-3-3-2~-----------------------------------------|
D |--------------------------------------------------------|
A |--------------------------------------------------------|
E |--------------------------------------------------------|
then you play the intro riff.
there was another thing at the end of the second verse that was slightly different but i haven't figured it out yet
otherwise a very good tab, a few mistakes but i am sure i would have made them to. :)

guest
Wanna post a correction for this tab? Suggest correction