Oops, an error
Loading. Please wait.

Go And Be Tab

version 1
version 1

Whole song

Interactive

368 views 1 this week
no commentswrite comment
1 2 3 4 5
3 more votes to show rating
add to favorites
launch autoscroll
font size
0
reset
how to read this tab
guitar tuner
Autoscroll
slow
fast
+/-
esc
set tempo
stop
Help us to improve Ultimate-Guitar.com Take our survey!
×
Author
Difficulty
intermediate
Song: Go and Be
Artist: Audio Adrenaline
Album:  Worldwide 
C 2003 Forefront Records

Tabbed by Austen L.

B5        799xxx
Eb5/Bb    668xxx
E5        022xxx
C#5       x466xx
F#5       244xxx 
G#m       466444
G#m/maj7  465444 
G#m7      4x444x
G#m6      4x344x
Em        022000            
E         022100

INTRO
  Gtr I
  B5      Eb5/Bb     E5       C#5
|-----------------|-------------------|
|-----------------|-------------------|
|-----------------|-----------6-6-6-6-|
|-9-9-9-9-8-8-8-8-|--2--2-2-2-6-6-6-6-|
|-9-9-9-9-6-6-6-6-|--2--2-2-2-4-4-4-4-|
|-7-7-7-7-6-6-6-6-|--0--0-0-0---------|
|
| Gtr II
|-----------------|-------------------|
|-----------------|-------------------|
|-----------------|-------------------|
|-----1-----1-----|-------------1-2-1-|
|-------2-4---4-2-|---------2-4-------|
|-----------------|-------------------|

   B5       Eb5/Bb     E5       F#5       
|-------------------|---------------------|
|-------------------|---------------------|
|-------------------|---------------------|
|--9--9-9-9-8-8-8-8-|--2--2-2-2-4-4--4--4-|
|--9--9-9-9-6-6-6-6-|--2--2-2-2-4-4--4--4-|
|--7--7-7-7-6-6-6-6-|--0--0-0-0-2-2--2--2-|
|
|-------------------|---------------------|
|-------------------|---------------------|
|-------------------|---------------------|
|-------1-----1-----|---------------------|
|---------2-4---4-2-|---------------------|
|-------------------|-----4---2-----------|


VERSE 1
  Gtr II 
  G#m
|---------------|---------|
|-----4---------|---------|
|---4-----------|---------|
|-6-------------|---------|
|---------------|---------|
|---------------|---------|

  E
|----------------|-------------|
|-------0--------|-----5-4-----|
|----------------|---------6-4-|
|-----2----------|-------------|
|---2------------|-------------|
|-0--------------|-------------|

  Gtr I
  G#m
|-------------|------------|
|-----4\------|-----4\-----|
|-----4\------|-----4\-----|
|-----6\------|-----6\-----|
|-----6\------|-----6\-----|
|-4-4-------0-|-4-4--------|

  E      B5         F#5
|-----------------|-----------------|
|-----0-----------|-----------------|
|-----1--/4-4-4-4-|-----------------|
|-----2--/4-4-4-4-|-4-4-4-4-4-4-4-4-|
|-2-2-2--/2-2-2-2-|-4-4-4-4-4-4-4-4-|
|-0-0-------------|-2-2-2-2-2-2-2-2-|


   Chorus 1
    Gtr I (plays chords below)
    B5      Eb5/Bb     E5      C#5
    / / / /  / / / /   / / / / / / / /
    Gtr III
||-------------------|-----------------|
||o----------------7-|-------0-------5-|
||--------8------8---|-----1-------6---|
||------9------8-----|---2-------6-----|
||o---9-----/6-------|-2-------4-------|
||--7----------------|-----------------|


  1. (play 1st time only)              2. (play 2nd time only)
  E5      C#5       E5      F#5         E5
  / / / / / / / /   / / / / / / / /     /

|-----------------|------------------||------|
|-------0-------5-|-------0---------o||-0----|
|-----1-------6---|-----1---------3--||-1----|
|---2-------6-----|---2---------4----||-2----|
|-2-------4-------|-2---------4-----o||-2----|
|-----------------|---------2--------||------|


   Verse 2
||---------------|-----|
||o---4----------|-----|
||------4--------|-----|
||---------------|-----|
||o--------------|-----|
||---------------|-----|

|--------------|---------------||
|---4----------|------5-4-----o||
|-----4--------|-3--------6-4--||
|--------------|-4-------------||
|--------------|-4------------o||
|--------------|---------------||


   Chorus 2
    Gtr I
    B5      Eb5/Bb     E5      C#5
    / / / /  / / / /   / / / / / / / /
    Gtr III
||-------------------|-----------------|
||o----------------7-|-------0-------5-|
||--------8------8---|-----1-------6---|
||------9------8-----|---2-------6-----|
||o---9-----/6-------|-2-------4-------|
||--7----------------|-----------------|

                   1.                  2.
  E5      C#5       E5      F#5         E5
  / / / / / / / /   / / / / / / / /     /
|-----------------|------------------||------|
|-------0-------5-|-------0---------o||-0----|
|-----1-------6---|-----1---------3--||-1----|
|---2-------6-----|---2---------4----||-2----|
|-2-------4-------|-2---------4-----o||-2----|
|-----------------|---------2--------||------|


Guitar Solo
  B5      Eb5/Bb    E5      Em
  / / / / / / / /   / / / / / / / /
  w/slide
|----------------|-------------------|
|---------/7---7-|-/9---11/9--8--8\--|
|-8---6/4--------|-------------------|
|----------------|-------------------|
|----------------|-------------------|
|----------------|-------------------|

  B5              Eb5/Bb     E5      F#5
   /  /    /  /   /  / / /   / / / / / / /  /
|--------------------------|--------------------|
|-/7-(7)\---------------7--|-/9----11--12-(12)\-|
|---------/8-(8)\-4-/8-----|--------------------|
|--------------------------|--------------------|
|--------------------------|--------------------|
|--------------------------|--------------------|


Bridge
  G#m     G#m/maj7  G#m7    G#m6
  ~
|-----------------|------------------|
|-9---------------|-------------12\--|
|-----------------|------------------|
|-----------------|------------------|
|-----------------|------------------|
|-----------------|------------------|
|
| Gtr II
|-----------------|------------------|
|-----4-------4---|-----4------------|
|---4---4---4---4-|---4---4------6---|
|-6-------5-------|-4---------6------|
|-----------------|---------8--------|
|-----------------|------------------|

  ~                                     ~~
|-----------------|------------------|-------|
|-9---------------|---------12---14\-|-11----|
|-----------------|------------------|-------|
|-----------------|------------------|-------|
|-----------------|------------------|-------|
|-----------------|------------------|-------|
|
|-----------------|------------------|-------|
|-----4-------4---|-----4------------|-------|
|---4---4---4---4-|---4---4-------6--|-------|
|-6-------5-------|-4----------6-----|--8----|
|-----------------|----------8-------|-------|
|-----------------|------------------|-------|


Out-Chorus
  B5        Eb5/Bb      E         C#5
  Gtr IV (acoustic)
|---------------------|---------------------|
|---------------------|---------------------|
|-8-8-8-8-8-8-8-8-8-8-|-1-1-1-1-1-6-6-6-6-6-|
|-9-9-9-9-9-8-8-8-8-8-|-2-2-2-2-2-6-6-6-6-6-|
|-9-9-9-9-9-6-6-6-6-6-|-2-2-2-2-2-4-4-4-4-4-|
|-7-7-7-7-7-6-6-6-6-6-|-0-0-0-0-0-----------|


                                  Gtr I
  E         C#5         E         F#5
                                   / / / /
  Gtr IV
|---------------------|---------------------|
|---------------------|---------------------|
|-1-1-1-1-1-6-6-6-6-6-|-1-1-1-1-1-3-3-3-3-3-|
|-2-2-2-2-2-6-6-6-6-6-|-2-2-2-2-2-4-4-4-4-4-|
|-2-2-2-2-2-4-4-4-4-4-|-2-2-2-2-2-4-4-4-4-4-|
|-0-0-0-0-0-----------|-0-0-0-0-0-2-2-2-2-2-|


  Gtr I
  B5      Eb5/Bb     E5      C#5
  / / / /  / / / /   / / / / / / / /
  Gtr III
|------------------|-----------------|
|----------------7-|-------0-------5-|
|-------8------8---|-----1-------6---|
|-----9------8-----|---2-------6-----|
|---9-----/6-------|-2-------4-------|
|-7----------------|-----------------|

  E5      C#5       E5      F#5
  / / / / / / / /   / / / / / / / /
|-----------------|-----------------|
|-------0-------5-|-------0---------|
|-----1-------6---|-----1---------3-|
|---2-------6-----|---2---------4---|
|-2-------4-------|-2---------4-----|
|-----------------|---------2-------|

    B5      Eb5/Bb     E5      C#5
    / / / /  / / / /   / / / / / / / /  3x
||-------------------|------------------||
||o----------------7-|-------0-------5-o||
||--------8------8---|-----1-------6----||
||------9------8-----|---2-------6------||
||o---9-----/6-------|-2-------4-------o||
||--7----------------|------------------||

  E5
|-----------------|-----------------|
|-----------------|-----------------|
|-----------------|-----------------|
|-2-2-2-2-2-2-2-2-|-2-2-2-2-2-2-2-2-|
|-2-2-2-2-2-2-2-2-|-2-2-2-2-2-2-2-2-|
|-0-0-0-0-0-0-0-0-|-0-0-0-0-0-0-0-0-|

    Gtr I
    B5      Eb5/Bb    E5       C#5
     / // / / / / /    / / / / / /   / /
    Gtr III
||------------------|-----------------------|
||o-----------------|-----------------------|
||------------------|-----------------------|
||------1-----1-----|-----------1--2--1-----|
||o-------2-4---4-2-|-------2-4-------------|
||------------------|-----------------------|
|
|   Gtr V
|    ~~                       ~    ~
||------------------|-----------------------|
||o-12--------------|---------7---/9---(9)\-|
||------------------|-----------------------|
||------------------|-----------------------|
||o-----------------|-----------------------|
||------------------|-----------------------|


  1. (play 1st time only)
  B5     Eb5/Bb    E5       F#5
  / // / / / / /    /  / //   / /  /    /
|----------------|-------------------------------||
|----------------|------------------------------o||
|----------------|-------------------------------||
|-1--1-----1-----|-------------------------------||
|------2-4---4-2-|----------------------2-------o||
|----------------|-----4--2--------2h4-----------||
|
| ~                           ~~~~~~~~
|----------------|-------------------------------||
|-7--------------|----------/14-----------(14)\-o||
|----------------|-------------------------------||
|----------------|-------------------------------||
|----------------|------------------------------o||
|----------------|-------------------------------||


  2. (play 2nd time only)
  E5            B5
  / ///  / ///   /         
|-------------|-----------||
|-------------|-----------||
|-------------|-----------||
|-------------|-----------||
|-2------4----|--2--------||
|-------------|-----------||
|
| ~              ~~~~~~~
|-------------|-----------||
|-7----/14----|-12--------||
|-------------|-----------||
|-------------|-----------||
|-------------|-----------||
|-------------|-----------||

There it is!I figured this site needed this song. 
Have fun. 
Audio A!!!!!
Suggest correction
Give kudos to tab author, rate the tab!
1 2 3 4 5
comments
print report bad tab
guest
You may want to rate the tab now too:
select rating
Wanna post a correction for this tab? Suggest correction