Oops, an error
Loading. Please wait.

Let My Love Open The Door tab

version 1
version 1

Whole song

6,795 views 1 this week
1 commentread comment
1 2 3 4 5
x 5
add to favorites
×
Save as Personal and add changes to this tab that will be seen only by you. Learn more ›
×
You can save this tab as Personal to edit and correct it or add notes. All changes will be seen only by you. Learn more »
launch autoscroll
font size
0
reset
how to read this tab
guitar tuner
edit
Autoscroll
slow
fast
+/-
esc
set tempo
stop
Intro/Verse

e|--------------------------------------8--------------------------------------------|
b|------------------8-------------8-------8----------8-------------------------------|
g|--------9-------------9h10----------------10---------------------------------------|
d|---10----10------------------------------------------------------------------------|
a|-----------------------------------------------------------------------------------|
e|-----------------------------------------------------------------------------------|

Pre-Chorus:play around with C and F.

Chorus:C and F I think.
Solo:? I haven't figured it out yet but i bet it doesn't stray far from C and F (even the
intro is just F moved up to the eighth fret)

If you figure out the solo,e-mail me at betterthantremonti@yahoo.com and i'd be real 
greatful.I hope you like it.

            
            
Suggest correction
Creating personal tab
Creating personal tab
You can edit any tab online and save it as your Personal.

You can edit, replace or remove any tab part or add personal notes – all changes will be seen only by you.

Personal tabs can be accessed anytime from any device, even offline.
Learn more »
comments
print report bad tab
1 comment total.
0 reply
dave_fletch 10 Feb 24, 2003 07:00 PM

Let My Love Open the Door (guitar solo)
-they play it a lot cooler than this, but if you
can play this, then listen to the song a few
times to fill in the blanks. Basically the
soloist that plays it is just super good.
February 25th, 2003 David Fletcher, no (c).

E--------------------------8----------------------
B----------------8-----------8---------8----8-----
G-9----------------9--9-10-----10-9------10---10-7
D---10-7-10-7-10--------------------10------------
A--XXXXXXX
E--XXXXXXX


E--------------------------8-----10-8-7-10-8-7-8
B-----------------8--8------8-8-8---------------
G-9----------------9--9-10----------------------
D--10-7-10-7-9-10-------------------------------
A--XXXXXXX this solo is really easy if you
E--XXXXXXX keep your pinky on 10, your
ring finger on 9, middle on 8,
and the index on 7 you never
have to slide around that way.

guest
Wanna post a correction for this tab? Suggest correction