Oops, an error
Loading. Please wait.

Car Ride Home Tab

155 views 1 this week
no commentswrite comment
1 2 3 4 5
3 more votes to show rating
add to favorites
launch autoscroll
font size
0
reset
how to read this tab
guitar tuner
Autoscroll
slow
fast
+/-
esc
set tempo
stop
Help us to improve Ultimate-Guitar.com Take our survey!
×
Author
Difficulty
intermediate
First off, I'm not taking credit for this tab in any way.  I'm just disappointed that I
realized other Audio Karate tabs existed (because nobody uploaded them here and it was a
harder finding them than I thought) and I'm sharing it here.  Definitely wanna thank 
Woodward for tabbing it out. I just started playing it today, and so far it sound very accurate.

Audio Karate – Car Ride Home

Tabbed by Jason Woodward
stillwannagotoaspen@yahoo.com


Tabbed by Jason Woodward
stillwannagotoaspen@yahoo.com


Guitar One

Intro – Listen For Strumming
e|--------------------------------------------------------------------|
B|--------------------------------------------------------------------|
G|-----6--------4-----------------------------------------------------|
D|--2--6--7--4--4-----------------------------------------------------|
A|--2--4--7--4--2-----------------------------------------------------|
E|--0-----5--2--------------------------------------------------------|

Verse Part 1
e|------------------------------------------------------------------------|
B|------------------------------------------------------------------------|
G|--4------4------4------1-----1h2p1--------------------------------------|
D|----2-2----2-2----2-2----2-2------------6--------6------7-6-6--6-6--4---|
A|------------------------------------4-4---4--4-4---4--4--------------0--|
E|------------------------------------------------------------------------|
    .....    ...    ...    ...        ...   .  ...   .  .   ...    .

Verse Part 1 Cont’d
e|--------------------------------------------------------------------|
B|---------------------------------------------------4-4-4-4-4-4-4-4--|
G|---------------------------------------2--------2--4-4-4-4-4-4-4-4--|
D|------7-------7-----6-----7---74-------------------4-4-4-4-4-4-4-4--|
A|--0-0--0--0-0--0--0---0-0---0---------------4-4----2-2-2-2-2-2-2-2--|
E|-----------------------------------2-2---2--2-2---------------------|
    ...     ...     .   ...   .      ...   .  ...

Verse Part 2
e|-----------------------------------------------------------------------------|
B|-----------------------------------------------------------------------------|
G|------4--------4--------1-----1h2p1h2/4--------------------------------------|
D|--2-2---2--2-2---2--2-2---2-2----------------6--------6------7-6-6--6-6--4---|
A|-----------------------------------------4-4---4--4-4---4--4--------------0--|
E|-----------------------------------------------------------------------------|
    ...   .  ...   .  ...   ...            ...   .  ...   .  .   ...    .

Verse Part 2 Cont’d
e|----------------------------------------------------------------------|
B|-----------------------------------------------------4-4-4-4-4-4-4-4--|
G|-----------------------------------------2--------2--4-4-4-4-4-4-4-4--|
D|------7--------7------6-----7---74-------------------4-4-4-4-4-4-4-4--|
A|--0-0---0--0-0---0--0---0-0---0---------------4-4----2-2-2-2-2-2-2-2--|
E|-------------------------------------2-2---2--2-2---------------------|
    ...   .  ...   .  .   ...   .      ...   .  ...

Pre-Chorus
e|-----------------|------------------|
B|-----------------|------------------|
G|--------------4--|--6------------4--|
D|--6--7--6--7--4--|--6--6--7---4--4--|
A|--6--7--6--7--2--|--4--6--7---4--2--|
E|--4--5--4--5-----|-----4--5---2-----|

Repeat Intro (x2)

Interlude
e|-----------------------------------------------------------------------|
B|------------------half-PM----------------------------------------------|
G|--4----4------4---4-4-4-4----1h2p1-------------------------------------|
D|----2----2-2----2-2-2-2-2--2-2~-----6-6-6-6------6------7-6-6-6-6--4~--|
A|------------------^these^-----------4-4-4-4--4-4---4--4---4-4-4-4--0~--|
E|-----------------------------------------------------------------------|
    ...    ...    .          .        ...   .  ...   .  .   .......

Interlude Cont’d
e|----------------------------------------------------------------------|
B|-----------------------------------------------------4-4-4-4-4-4-4-4--|
G|-----------------------------------------2--------2--4-4-4-4-4-4-4-4--|
D|------7--------7------6-----7---74-------------------4-4-4-4-4-4-4-4--|
A|--0-0---0--0-0---0--0---0-0---0---------------4-4----2-2-2-2-2-2-2-2--|
E|-------------------------------------2-2---2--2-2---------------------|
    ...   .  ...   .  .   ...   .      ...   .  ...

Repeat Verse Part 2
Repeat Pre-Chorus
Repeat Intro (x2)

Bridge
e|----------------------------------------------------------------------------|
B|-----------------------7-9-7--------------7-9-7------------7-9-7------------|
G|------------6-8-9~----------9-8-6-8-9~----------9-8-6-8-9--------9-8-6-8-9--|
D|------6-7-9----------6------------------------------------------------------|
A|--7-9-----------------------------------------------------------------------|
E|----------------------------------------------------------------------------|

Bridge
e|-------------------------------------|
B|--7-9-7------------7-9-7h9--9-strum--|
G|--------9-8-6-8-9-----------9--------|
D|----------------------------9--------|
A|----------------------------7--------|
E|-------------------------------------|

Repeat Intro

End On
e|------|
B|------|
G|------|
D|--2~--|
A|--2~--|
E|--0~--|


Guitar Two

Beginning of Song
e|--4------4------4------4------4----4------|
B|----5-5----5-5----5-5----5-5----5----5-5--|
G|------------------------------------------|
D|------------------------------------------|
A|------------------------------------------|
E|------------------------------------------|
      ...    ...    ...    ...    .    ...

Intro Part 2
e|--4--4/7-7--9-7-9-----|
B|--5--5/9-9--9-9-9-----|
G|----------------------|
D|----------------------|
A|----------------------|
E|----------------------|

Intro Part 2 Cont’d (this part x5)
e|--4--4/7-7--14-12-16-----|
B|--5--5/9-9--12-12-14-----|
G|-------------------------|
D|-------------------------|
A|-------------------------|
E|-------------------------|

End of Intro
e|--12~--14-12--11~--12-11----------11-----------------------|
B|--12~--12-12--12~--------12-14-12----12--5~--4~--2~-/------|
G|-----------------------------------------------------------|
D|-----------------------------------------------------------|
A|-----------------------------------------------------------|
E|-----------------------------------------------------------|

Verse Part 1
e|------4p0------4p0------4p0------4p0------4p0------4p0------4p0------4p0--|
B|--5-5------5-5------5-5------5-5------5-5------5-5------5-5------5-5------|
G|--------------------------------------------------------------------------|
D|--------------------------------------------------------------------------|
A|--------------------------------------------------------------------------|
E|--------------------------------------------------------------------------|
    ...      ...      ...      ...      ...      ...       ...     ...

Verse Fill 1
e|----7p0---4p0-5p0--4p0----4p0----|
B|--5-----5--------------5------5--|
G|---------------------------------|
D|---------------------------------|
A|---------------------------------|
E|---------------------------------|
    .     .

Repeat Verse Part 1

Verse Fill 2
e|----7p0---4p0-5p0--4p0----7p0-------|
B|--5-----5--------------5------5/7x--|
G|------------------------------------|
D|------------------------------------|
A|------------------------------------|
E|------------------------------------|
    .     .

Pre-Chorus Part 1
e|--14-12-11--11/12--12-12--12/14--14-14--1411--11-11----|
B|--12-12-12--12/14--14-14--14/16--16-16--1612--12-12----|
G|-------------------------------------------------------|
D|-------------------------------------------------------|
A|-------------------------------------------------------|
E|-------------------------------------------------------|

Pre-Chorus Cont’d
e|--4--4/7-7-7---4--4/7-9-9-7-7-7---4--4/7----|
B|--5--5/9-9-9---5--5/9-9-9-9-9-9---5--5/9----|
G|--------------------------------------------|
D|--------------------------------------------|
A|--------------------------------------------|
E|--------------------------------------------|

Repeat Pre-Chorus Part 1

e|--4--4/7-7-9p7-7-7--7/11-11-11-11-11-11-11-11--|
B|--5--5/9-9-9-9-9-9--9/12-12-12-12-12-12-12-12--|
G|-----------------------------------------------|
D|-----------------------------------------------|
A|-----------------------------------------------|
E|-----------------------------------------------|

Next Part of Pre-Chorus
e|--------------14----16----17----16----14-----------|
B|--16p14-17p14----14----14----14----14----14-17p12--|
G|---------------------------------------------------|
D|---------------------------------------------------|
A|---------------------------------------------------|
E|---------------------------------------------------|

Next Part of Pre-Chorus Cont’d
e|--11----12----14----12----11----14-----------------|
B|-----12----12----12----12----12----12-14p12-16-----|
G|-----------------------------------------------14--|
D|---------------------------------------------------|
A|---------------------------------------------------|
E|---------------------------------------------------|

Next Part of Pre-Chorus Cont’d
e|---------------------------------------------------|
B|--14----16----17----16----14----------17----16-----|
G|-----14----14----14----14----14-16p14----14----14--|
D|---------------------------------------------------|
A|---------------------------------------------------|
E|---------------------------------------------------|

Next Part of Pre-Chorus Cont’d
e|-------------9-11-12-----|
B|------10-12~-------------|
G|--11~--------------------|
D|-------------------------|
A|-------------------------|
E|-------------------------|

Chorus Part 1 (this part x3)
e|--4--4/7-7--9-7-9--4--4/7-7--14-12-16------|
B|--5--5/9-9--9-9-9--5--5/9-9--12-12-14------|
G|-------------------------------------------|
D|-------------------------------------------|
A|-------------------------------------------|
E|-------------------------------------------|

End of Chorus
e|--12~--14-12--11~--12-11----------11-----|
B|--12~--12-12--12~--------12-14-12----12--|
G|-----------------------------------------|
D|-----------------------------------------|
A|-----------------------------------------|
E|-----------------------------------------|

Repeat Chorus Part 1
Repeat End of Intro
Repeat Verse Part 1
Repeat Verse Fill 1
Repeat Verse Part 1

Verse Fill 3
e|----7p0---4p0-5p0-7p0-5p0-4p0-----|
B|--5-----5---------------------0x--|
G|----------------------------------|
D|----------------------------------|
A|----------------------------------|
E|----------------------------------|
    .     .

Repeat Whole Pre-Chorus
Repeat Next Part of Pre-Chorus
Repeat Chorus
Repeat Intro Part 2
Repeat End of Chorus

Pre-Bridge
e|--12~--12~--12----------|
B|--12~--12~--12----------|
G|----------------6~-6-6--|
D|------------------------|
A|------------------------|
E|------------------------|

Bridge
e|--------------------11-12~--14-16-14------------------|
B|----------10-12-14-------------------17-16-14-16-17~--|
G|--9-11-13---------------------------------------------|
D|------------------------------------------------------|
A|------------------------------------------------------|
E|------------------------------------------------------|

Bridge Cont’d
e|--14-16-14-----------------14-16-14-----------------|
B|-----------17-16-14-16-17-----------17-16-14-16-17--|
G|----------------------------------------------------|
D|----------------------------------------------------|
A|----------------------------------------------------|
E|----------------------------------------------------|

Bridge Cont’d
e|-------------------------------16----14----12----16----14----12----14~--|
B|--16-14--------------------/12----12----12----12----12----12----12------|
G|--------16-14-13--------------------------------------------------------|
D|-----------------16-14-16-----------------------------------------------|
A|------------------------------------------------------------------------|
E|------------------------------------------------------------------------|

Bridge Cont’d
e|--------16h19p16~-------16h19p16~-------------------------------------------------|
B|--17h19-----------17h19------------17h19-19h21p19p17h19--19h21p19p17h19--19h21x---|
G|----------------------------------------------------------------------------------|
D|----------------------------------------------------------------------------------|
A|----------------------------------------------------------------------------------|
E|----------------------------------------------------------------------------------|

Bridge Cont’d
e|-------------------------------------------------------------------|
B|------------17---------------------------17----------19-19-19-17~--|
G|--16-16b18~----18b16-14-16~-14-13-16b18~----18b16-14---------------|
D|-------------------------------------------------------------------|
A|-------------------------------------------------------------------|
E|-------------------------------------------------------------------|
Suggest correction
Give kudos to tab author, rate the tab!
1 2 3 4 5
comments
print report bad tab
guest
You may want to rate the tab now too:
select rating
Wanna post a correction for this tab? Suggest correction