Oops, an error
Loading. Please wait.

Drama Club Romance Tab

208 views 1 this week
no commentswrite comment
1 2 3 4 5
please rate
add to favorites
launch autoscroll
font size
0
reset
how to read this tab
guitar tuner
Autoscroll
slow
fast
+/-
esc
set tempo
stop
Help us to improve Ultimate-Guitar.com Take our survey!
×
Contributor
Difficulty
intermediate
Again, I'm not taking credit for this tab in any way; just sharing it on this site since 
Karate hasn't been updated here in years.  Great thanks to Jason Woodward for tabbing 
one.

Audio Karate – Drama Club Romance

Tabbed by Jason Woodward
stillwannagotoaspen@yahoo.com

Guitar One

Come In With
e|------------|
B|------------|
G|------------|
D|--9-9-9-9x--|
A|--9-9-9-9x--|
E|--7-7-7-7x--|

Intro/Verse (x2)
e|-----------------------------------------------5-5-5-5x--5-5-5-5x--5-5-5--|
B|-----------------------------------------------5-5-5-5x--5-5-5-5x--5-5-5--|
G|--6-strum-----------4-4-4-4x--4-4-4-4x--4-4-4--7-7-7-7x--7-7-7-7x--7-7-7--|
D|--7--16x---2-strum--4-4-4-4x--4-4-4-4x--4-4-4--7-7-7-7x--7-7-7-7x--7-7-7--|
A|--7--------2--16x---2-2-2-2x--2-2-2-2x--2-2-2--5-5-5-5x--5-5-5-5x--5-5-5--|
E|--5--------0--------------------------------------------------------------|

Verse Part 2 (x2)
e|-----------------------------5-strum--|
B|-----------------------------5--16x---|
G|--6-strum-----------4-strum--7--------|
D|--7--16x---2-strum--4--16x---7--------|
A|--7--------2--16x---2--------5--------|
E|--5--------0--------------------------|

Chorus (this part x2)
e|--------------------------------------|
B|--5-strum--7-strum--------------------|
G|--6--16x---7--16x---6-strum-----------|
D|--6--------7--------7--16x---2-strum--|
A|--4--------5--------7--------2--16x---|
E|--------------------5--------0--------|

Chorus Cont’d
e|--------------------------------------------------------|
B|--5-5-5-5x--5-5-5-5x--5-5-5--7-7-7-7x--7-7-7-7x--7-7-7--|
G|--6-6-6-6x--6-6-6-6x--6-6-6--7-7-7-7x--7-7-7-7x--7-7-7--|
D|--6-6-6-6x--6-6-6-6x--6-6-6--7-7-7-7x--7-7-7-7x--7-7-7--|
A|--4-4-4-4x--4-4-4-4x--4-4-4--5-5-5-5x--5-5-5-5x--5-5-5--|
E|--------------------------------------------------------|

Verse 2
e|--5~------------------------------------------------------------|
B|--5~---------------------------------5-5-5-5x--5-5-5-5x--5-5-5--|
G|--6~------4-4-4-4x--4-4-4-4x--4-4-4--7-7-7-7x--7-7-7-7x--7-7-7--|
D|--7~--2~--4-4-4-4x--4-4-4-4x--4-4-4--7-7-7-7x--7-7-7-7x--7-7-7--|
A|--7~--2~--2-2-2-2x--2-2-2-2x--2-2-2--5-5-5-5x--5-5-5-5x--5-5-5--|
E|--5~--0~--------------------------------------------------------|

Repeat Verse Part 2 (x2)
Repeat Chorus

Pre-Bridge
e|---------------------------------------------------------|
B|--5-5-5-5x--5-5-5-5x--5-5-5------------------------------|
G|--6-6-6-6x--6-6-6-6x--6-6-6------------------------------|
D|--6-6-6-6x--6-6-6-6x--6-6-6--2-2-2-2x--2-2-2-2x--2-2-2---|
A|--4-4-4-4x--4-4-4-4x--4-4-4--2-2-2-2x--2-2-2-2x--2-2-2---|
E|-----------------------------0-0-0-0x--0-0-0-0x--0-0-0---|

Next Part (Overlaps with the end of the Pre-Bridge)
e|---------------|
B|---------------|
G|--13-13-13-13--|
D|---x--x--x--x--|
A|--11-11-11-11--|
E|---------------|

Bridge Part 1 (this part x3)
e|-----------------------------------------|
B|-----------------------------------------|
G|--14-14-14-14x--16-16-16-16x--18-18-18x--|
D|---x--x--x--x----x--x--x--x----x--x--x---|
A|--12-12-12-12x--14-14-14-14x--16-16-16x--|
E|-----------------------------------------|

Bridge Cont’d
e|-----------------------------------------|
B|-----------------------------------------|
G|--13-13-13-13x--14-14-14-14x--16-16-16x--|
D|---x--x--x--x----x--x--x--x----x--x--x---|
A|--11-11-11-11x--12-12-12-12x--14-14-14x--|
E|-----------------------------------------|

Repeat Bridge (x2)

End With
e|---------------------------------------------------|
B|--5-strum--7-strum--5-strum------------------------|
G|--6--16x---7--16x---6--16x-------------------------|
D|--6--------7--------6--------2-strum--7~----7x-----|
A|--4--------5--------4--------2--16x---7~----7x-----|
E|-----------------------------0--------5~----5x-----|

Guitar Two

Intro (x2)
e|--5--5-5-5-5-5-5--5--5-5-5-5-5-5--0--0-0-0-0-0-0--5--5-5-5-5-5-5--|
B|--2--2-2-2-2-2-2--3--3-3-3-3-3-3--3--3-3-3-3-3-3--3--3-3-3-3-3-3--|
G|------------------------------------------------------------------|
D|------------------------------------------------------------------|
A|------------------------------------------------------------------|
E|------------------------------------------------------------------|

Intro Cont’d
e|--2-2-0-0x--2-2-0-0x--2-2-0-0-2-2-0-0x--2-2-0-0x--2-2-0-0--|
B|--3-3-3-3x--3-3-3-3x--3-3-3-3-3-3-3-3x--3-3-3-3x--3-3-3-3--|
G|-----------------------------------------------------------|
D|-----------------------------------------------------------|
A|-----------------------------------------------------------|
E|-----------------------------------------------------------|

Verse Part 1
e|--5--5-5-5-5-5-5--5--5-5-5-5-5-5--0--0-0-0-0-0-0--5--5-5-5-5-5-5--|
B|--2--2-2-2-2-2-2--3--3-3-3-3-3-3--3--3-3-3-3-3-3--3--3-3-3-3-3-3--|
G|------------------------------------------------------------------|
D|------------------------------------------------------------------|
A|------------------------------------------------------------------|
E|------------------------------------------------------------------|

Verse Part 2
e|--2-2-0-0x--2-2-0-0x--2-2-0-0-2-2-0-0x--2-2-0-0-0-0-0-0-0-0--|
B|--3-3-3-3x--3-3-3-3x--3-3-3-3-3-3-3-3x--3-3-5-5-5-5-5-5-5-5--|
G|-------------------------------------------------------------|
D|-------------------------------------------------------------|
A|-------------------------------------------------------------|
E|-------------------------------------------------------------|

Repeat Verse Part 1

Verse Part 3
e|--2-2-3-3-2--2-0-2-0-3-0--5-5-5--3-3-2--2-0-2-0-3-0--|
B|--3-3-3-3-3--3-3-3-3-3-3--3-3-3--3-3-3--3-3-3-3-3-3--|
G|-----------------------------------------------------|
D|-----------------------------------------------------|
A|-----------------------------------------------------|
E|-----------------------------------------------------|

Repeat Verse Part 1
Repeat Verse Part 3

Chorus
e|------------------------------------------------------------------------------|
B|--5~-------5~----7~-------7~----5~-------5~--0-0-0-0-0-0-0-0-0-0-0-0-0-0-0-0--|
G|----6~--6~----6~---6~--6~----6~---6~--6~-----6-6-6-6-6-6-6-6-6-6-6-6-6-6-6-6--|
D|------7~-------------7~-------------7~----------------------------------------|
A|------------------------------------------------------------------------------|
E|------------------------------------------------------------------------------|

Chorus Cont’d
e|-----------------------------------------------------------------------------|
B|--5~-------5~----7~-------7~----5~-------5~--7-7-7x--7-7-7x--7-7-7x--7-7-7x--|
G|----6~--6~----6~---6~--6~----6~---6~--6~-----6-6-6x--6-6-6x--6-6-6x--6-6-6x--|
D|------7~-------------7~-------------7~-------7-7-7x--7-7-7x--7-7-7x--7-7-7x--|
A|-----------------------------------------------------------------------------|
E|-----------------------------------------------------------------------------|

Chorus Cont’d
e|--------------------------------------------------------|
B|--5-5-5-5x--5-5-5-5x--5-5-5--7-7-7-7x--7-7-7-7x--7-7-7--|
G|--6-6-6-6x--6-6-6-6x--6-6-6--7-7-7-7x--7-7-7-7x--7-7-7--|
D|--6-6-6-6x--6-6-6-6x--6-6-6--7-7-7-7x--7-7-7-7x--7-7-7--|
A|--4-4-4-4x--4-4-4-4x--4-4-4--5-5-5-5x--5-5-5-5x--5-5-5--|
E|--------------------------------------------------------|

Verse 2
e|----------------------|
B|----------------------|
G|----------------------|
D|--7~--2~--------------|
A|--7~--2~--------------|
E|--5~--0~--pick slide--|

Verse Cont’d
e|--------------------------------------------------------|
B|--------------------------------------------------------|
G|--4-4-4-4x--4-4-4-4x--4-4-4--7-7-7-7x--7-7-7-7x--7-7-7--|
D|--4-4-4-4x--4-4-4-4x--4-4-4--7-7-7-7x--7-7-7-7x--7-7-7--|
A|--2-2-2-2x--2-2-2-2x--2-2-2--5-5-5-5x--5-5-5-5x--5-5-5--|
E|--------------------------------------------------------|

Repeat Verse Part 1
Repeat Verse Part 3
Repeat Verse Part 1
Repeat Verse Part 3
Repeat Chorus

Bridge (x2)
e|--5-5-5-5x--5-5-5-5x--5-5-5--------------------------------------------------------|
B|--5-5-5-5x--5-5-5-5x--5-5-5--------------------------------------------------------|
G|--6-6-6-6x--6-6-6-6x--6-6-6--------------------------------------------------------|
D|--7-7-7-7x--7-7-7-7x--7-7-7--2-2-2-2x--2-2-2-2x--2-2-2--4-4-4-4x--4-4-4-4x--4-4-4--|
A|--7-7-7-7x--7-7-7-7x--7-7-7--2-2-2-2x--2-2-2-2x--2-2-2--4-4-4-4x--4-4-4-4x--4-4-4--|
E|--5-5-5-5x--5-5-5-5x--5-5-5--0-0-0-0x--0-0-0-0x--0-0-0--2-2-2-2x--2-2-2-2x--2-2-2--|

Bridge Cont’d
e|-----------------------------|
B|-----------------------------|
G|--7-7-7-7x--7-7-7-7x--7-7-7--|
D|--7-7-7-7x--7-7-7-7x--7-7-7--|
A|--5-5-5-5x--5-5-5-5x--5-5-5--|
E|-----------------------------|

End of Bridge
e|--------------------------------------------------------------|
B|--------------------------------------------------------------|
G|--------------------------------------------------------------|
D|--7-7-7-7x--7-7-7-7x--7-7-7--2-2-2-2-2-2-2-2-2-2-2-2-2-2-2-2--|
A|--7-7-7-7x--7-7-7-7x--7-7-7--2-2-2-2-2-2-2-2-2-2-2-2-2-2-2-2--|
E|--5-5-5-5x--5-5-5-5x--5-5-5--0-0-0-0-0-0-0-0-0-0-0-0-0-0-0-0--|
                               ...............................

Post-Bridge
e|---------------------------------|
B|---------------------------------|
G|-----------7-strum---------------|
D|--4-strum--5--16x---7-strum--2~--|
A|--4--16x---5--------7--16x---2~--|
E|--2-----------------5--------0~--|

Outro (listen for strum rhythm)
e|------------------------------------------------------------------------|
B|------------------------------------------------------------------------|
G|--6-strum--7-strum--14-14-14-14--13-13-13-13--14-14-14-14--16-16-16-16--|
D|--6--16x---7--16x----x--x--x--x---x--x--x--x---x--x--x--x---x--x--x--x--|
A|--4--------5--------12-12-12-12--11-11-11-11--12-12-12-12--14-14-14-14--|
E|------------------------------------------------------------------------|

Outro Cont’d
e|---------------------------------------------------------|
B|---------------------------------------------------------|
G|--9-9-9-9--11-11-11-11--13-13-13-13--16-16-16-14~--14~x--|
D|--x-x-x-x---x--x--x--x---x--x--x--x---x--x--x--x----x----|
A|--7-7-7-7---9--9--9--9--11-11-11-11--14-14-14-12~--12~x--|
E|---------------------------------------------------------|
comments
We did not receive enough feedback on this tab! Please rate:
print report bad tab
1 2 3 4 5
I want to post or [tab]
guest
You may want to rate the tab now too:
select rating
Please do not post tabs as comments. Select "correction" instead!