Oops, an error
Loading. Please wait.

Jesus Is Alive And Well And Living In Mexico Bass Tab

1,058 views 1 this week
no commentswrite comment
1 2 3 4 5
2 more votes to show rating
add to favorites
launch autoscroll
font size
0
reset
guitar tuner
Autoscroll
slow
fast
+/-
esc
set tempo
stop
Help us to improve Ultimate-Guitar.com Take our survey!
×
Author
Difficulty
intermediate
Band: Audio Karate
Song: Jesus Is Alive And Well (And Living In Mexico)
Album: Lady Melody
Tabbed by: choke383
Normal Tuning: GDAE


0:12
G|---------------------------------|
D|---------------------------------|
A|--------4444444-------47777764\--|
E|44444444-------7777747-----------|

G|---------------------------------|
D|------------------------6-6------|
A|--------4444444-------47-7-764---|
E|44444444-------7777747--------7--|


0:37
G|-------------------------------------------------------|
D|-------------------------------------------------------|
A|-------------------------------------4446----77777777--|
E|444444-444444-444444-444422--44466677----444-----------|x2


0:33
G|------------------------------------------------------------------|
D|66666666666----4h644444444666444---------666444---------444-------|
A|-----------04h6-----------------6--------------667777777---77766--|
E|---------------------------------77777777-------------------------|

G|------------------------------------------------------------------|
D|66666666666----4h644444444666444---------64-44-----------4--------|
A|-----------04h6-----------------6----------6--76677777777-76764---|
E|---------------------------------77777777----------------------7--|


0:56
G|---------------------------------|
D|---------------------------------|
A|--------4444444-------47777764---|
E|44444444-------7777747--------7--|x2

G|---------------------------------|
D|------------------------6-6------|
A|--------4444444-------47-7-764---|
E|44444444-------7777747--------7--|


1:13
G|-------------------------------------------------------|
D|-------------------------------------------------------|
A|-------------------------------------4446----77777777--|
E|444444-444444-444444-444422--44466677----444-----------|x2


1:36
G|------------------------------------------------------------------|
D|66666666666----4h644444444666444---------666444---------444-------|
A|-----------04h6-----------------6--------------667777777---77766--|
E|---------------------------------77777777-------------------------|

G|------------------------------------------------------------------|
D|66666666666----4h644444444666444---------64-44-----------4--------|
A|-----------04h6-----------------6----------6--76677777777-76764---|
E|---------------------------------77777777----------------------7--|

1:59
G|---------------------------------|
D|---------------------------------|
A|--------4444444-------47777764---|
E|44444444-------7777747--------7--|x2

G|---------------------------------|
D|------------------------6-6------|
A|--------4444444-------47-7-764---|
E|44444444-------7777747--------7--|


2:16
G|------------------------------------------------------------------|
D|66666666666----4h644444444666444---------666444----------4--------|
A|-----------04h6-----------------6--------------6677777777-76764---|
E|---------------------------------77777777----------------------7--|


2:27
G|-------------------------------------------------------|
D|-------------------------------------------------------|
A|-------------------------------------4446----77777777--|
E|444444-444444-444444-444422--44466677----444-----------|


2:38
G|------------------------------------------------------------------|
D|66666666666----4h644444444666444---------666444---------444-------|
A|-----------04h6-----------------6--------------667777777---77766--|
E|---------------------------------77777777-------------------------|

G|------------------------------------------------------------------|
D|66666666666----4h644444444666444---------64-44-----------4--------|
A|-----------04h6-----------------6----------6--76677777777-76764---|
E|---------------------------------77777777----------------------7--|


3:01
G|---------------------------------|
D|---------------------------------|
A|--------4444444-------47777764---|
E|44444444-------7777747--------7--|x3

G|----------------------------------|
D|------------------------6-6-------|
A|--------4444444-------47-7-764----|
E|44444444-------7777747--------74--|



Any comments, questions or jokes send to style444@hotmail.com
Suggest correction
Give kudos to tab author, rate the tab!
1 2 3 4 5
comments
print report bad tab
guest
You may want to rate the tab now too:
select rating
Wanna post a correction for this tab? Suggest correction