Oops, an error
Loading. Please wait.

Tahoe Tab

525 views 1 this week
no commentswrite comment
1 2 3 4 5
x 3
add to favorites
launch autoscroll
font size
0
reset
how to read this tab
guitar tuner
Autoscroll
slow
fast
+/-
esc
set tempo
stop
Help us to improve Ultimate-Guitar.com Take our survey!
×
Author
Tahoe
Audiodub
Daytime TV

Intro:
|--5------|
|--5------|
|--6--x13-|
|--7------|
|--7------|
|--5------|

|-----------------------------------------------------------------|
|-----------------------------------------------------------------|
|--6--------6----------------6-6-----------------------7--6-------|
|----7--------9-7-7/9--7---------9-7-7/9--7-----7-9-7--------7---7|
|--------------------------------------------------------------9--|
|-----------------------------------------------------------------|

Verse

|--5----7----4----2--|
|--5----7----5----3--|
|--6----7----6----4--|
|--7----9----6----4--|
|--7----9----4----2--|
|--5----7------------|

Listen to the song for the rhythm, use upstrokes

Chorus

|--5----2----4----4----2---------|
|--5----3----5----5----3----2----|
|--6----4----6----6----4----2----|
|--7----4----6----6----4----2----|
|--7----2----4----4----2----0----|
|--5-----------------------------|

Horn Solo

|--------------------------------------------------------|
|--------------------------------------------------------|
|--6------6--------------6------------6------7--6--------|
|----7------9-7-7/9-7------9-7-7/9-7-----9-7-------7--9--|
|--------------------------------------------------------|
|--------------------------------------------------------|

|--------------------------------------------------------|
|--------------------------------------------------------|
|--6-----6-------------6-7-6--------6-7-6----------7-6---|
|----7-----9-7-7/9-7---------7-------------7-9---7-------|
|------------------------------9-------------------------|
|--------------------------------------------------------|

Outro

|--5----4----5----2----5--|
|--7----5----5----3----5--|
|--7----6----6----4----6--|
|--7----6----7----4----7--|
|--5----4----7----2----7--|
|------------5---------5--|

It's pretty easy to figure out the rhythm and strumming patterns if you listen to the song. 
I'm pretty sure the chorus is not right.
Send me a correction if you have it.

Peace
Suggest correction
Give kudos to tab author, rate the tab!
1 2 3 4 5
comments
print report bad tab
guest
You may want to rate the tab now too:
select rating
Wanna post a correction for this tab? Suggest correction